0-9 A B C D E F G H I J K L M N O P Q R S T U V W X Y Z

Funkadelic — Cholly (funk Gettin Ready To Roll) bass tabs


s— slap
p— pop

Main bass line(you must add some simply variations during the song):
G———————————5—5—————————————————————————————————————————————|
D————7——x————————x———7——————————————————————————————————————|
A——————————————————————————————x12/—————————————————————————|
E—5——————5————————5———————x12/——————x12/————————————————————|

Another bass line:
G—————————5———5——————————————————————|
D—————5—7———7———7————————————————————|
A—5/7—————————————7——3/5/————————————|
E————————————————————————————————————|

G————————5—7—9——5——7————————|
D————5—7—————————————7—5~~——|
A—5/7———————————————————————|
E———————————————————————————|

And now the most funky part:
G—————————————————————————————————————————|
D—0—7—9——7——————0—7—0—9——————————7/9——————|
A——————————9—————————————0—4—5———————7————|
E————————————7————————————————————————————|
play it with different variations to see what works best
Tablature player for this song:

Comments

Sorry but the last part is incorrect.
It should be played like this
Tabs:
G|--------------------------------------|
D|-0-5-7-5-----0-5-0-7-------5h7--------|
A|---------7-----------0-2-3-----5------|
E|-----------5--------------------------| X4

Followed by
[tabs]
G|---------------------------5-4--------|
D|-----5-6-7-5-----5-4---5-7-----7------|
A|-5-7---------7-5-----7-----------5-7--|
E|--------------------------------------| X4
[/tabs]

Post a comment