0-9 A B C D E F G H I J K L M N O P Q R S T U V W X Y Z

anyone really good at listening to songs and getting the bass notes?

Youngflower
Posts: 1
10 months ago
Report this message
Quote
anyone who can hear what the bass plays in the song at 3 : 32? https://www.youtube.com/watch?v=DFyBETWj0Cg or a harder one is the opening bass line in this song https://www.youtube.com/watch?v=MkBraQD7xi0 ?
LoudLon [moderator]
Posts: 1540
First song (nevermind the dots above the bar; the “repeat” doesn't line up without them):
Tabs:
..................................(repeat)
G|-----------------||-----------------|-----------------|
D|---------------5-||-----------------|-------3-r-4-r-5-|
A|-----------------||---3-5-6---5-----|-----------------|
E|-----------------||-3-------------3-|-6-6-r-----------|


Second song:

Tabs:
G|---13\12-10------------|---------5-7---7-|-r-----5----------|-----------------|-----------------|
D|-----------12-10-------|-------7---------|---5-7------7-5---|-----------------|-----------------|
A|-----------------12-10-|-5---------------|----------------8-|-5-----3-5-3---3-|-r-5-------------|
E|-r---------------------|-----------------|------------------|-------------5---|-----1----3----5-|

Reply to this thread