0-9 A B C D E F G H I J K L M N O P Q R S T U V W X Y Z

Theme Songs — Adams Family (ver 3) bass tabs


Want to make Adams Family sound awesome on your bass? Master proper technique on bass with step-by-step beginner's lessons. >> Click Here

Artist:Theme Songs
Title:Adams Family

G|—————————————————————————————————————————————————————|
D|———————————————————0———————————0———————0—————————————|
A|———0—2—3—————0—2—3———————0—2—3———0—2—3—————0—2—3—————|
E|—3———————x—x—————————x—x—————————————————3———————x—x—|

VERSE

G|———————————————————————————————————————————————————————|
D|—————2———————0———————————————————2———————0—————————————|
A|———3———3—2—0—————3—5—3—————3———3———3—2—0—————————0—2—3—|
E|—3—————————————5———————5—3———3—————————————5—3—3———————|
Tablature player for this song:

Other versions of Adams Family

Comments

Tabs:
G|-----------------------------------------------------|
D|-------------------0-----------0-------0-------------|
A|---0-2-3-----0-2-4-------0-2-4---0-2-4-----0-2-3-----|
E|-3-------x-x---------x-x-----------------3-------x-x-|
Tabs:
G|-------------------------------------------------------|
D|-----2-------0-----0-------------2-------0-------------|
A|---3---3-2-0---0-3---3-0---3---3---3-2-0---0-----0-2-3-|
E|-3-----------------------3---3---------------3-3-------|

Post a comment