0-9 A B C D E F G H I J K L M N O P Q R S T U V W X Y Z

The Fixx — Saved By Zero bass tabs

3.5 / 5 (2x)
  Rate this tab:


(submitted by bass freak)
Tabbed by: YuMmiBo2112

The Fixx— Saved By Zero
Album: Reach the Beach

Standard Tuning: E—A—D—G

G|——————————————————————|
D|——————————————————————|
A|———2——0—2——654—2—0————|
E|——————————————————————|

G|————————————————————————————————|
D|———————4—4—4—4——————————4———————|
A|———2—2—————————0—0——0—4———6—2———|
E|————————————————————————————————|

G|——————————————————————————————————|
D|——————————————————————————4———————|
A|———2———0——0————————0——0—4———6—2———|
E|——————————————4——4————————————————|

G|——————————————————————————————————————————————|
D|——————————————————————————————————————————————|
A|———0—2———4———0—2———4————0—2———4———0—2———4—————|
E|—————————————————————2————————————————————2———|

Tablature player for this song:

Comments

1 year, 1 month ago
Report this comment
Permlink Quote
Sorry, but this is mostly wrong. For instance, the intro and verse (Ignore the dots, I needed them to make sure notations lined up):

Intro:
Tabs:
.................( x3 )
G |-----------------|-----------------||-----------------|-----------------|
D |-----------------|----------h------||-----------------|-----------------|
A |-2-----0-5-4-2-0-|-2-----0-454-5-4-||-2-----0-5-4-2-0-|-2---------------|
E |-----2-----------|-----2-----------||-----2-----------|-----------------|
....1 & 2 & 3 & 4 & 1 & 2 & 3 & 4 & 1 & 2 & 3 & 4 & 1 & 2 & 3 & 4 &

Verse 1 (x4):
Tabs:
G |-----------------|-----------------|-----------------|-----------------|
D |-----------------|-----------------|-------2-4-2-----|-----5-4---4-----|
A |-2-----0-5-4-2-0-|-2-----0-5-4-2-0-|-0---4-------4-0-|---------5---5-4-|
E |-----2-----------|-----2-----------|-----------------|-3---------------|
....1 & 2 & 3 & 4 & 1 & 2 & 3 & 4 & 1 & 2 & 3 & 4 & 1 & 2 & 3 & 4 &

Not to mention the chorus, which is also quite a bit off.

Post a comment