0-9 A B C D E F G H I J K L M N O P Q R S T U V W X Y Z

Minutemen — Joe McCarthy's Ghost bass tabs

5.0 / 5 (1x)
  Rate this tab:

Want to make Joe McCarthy's Ghost sound awesome on your bass? Master proper technique on bass with step-by-step beginner's lessons. >> Click Here

G|—————————————————7————————7—|—99———————————————7————————7—| 
D|—007——————7————5———5—7—789——|———7———————7————5———5—7—789——|
A|————9———9———9———————————————|—————9———9———9———————————————|
E|————————————————————————————|—————————————————————————————|


Best bass line in the world. play first bar once. Second bar is repeated throughout
song. the last "789" on D and "7" on G are sort of all rolled together as an end and
lead into the next round. This tab is practically spot on for playing along with the
record.



bigbasstabs.
Tablature player for this song:

Comments

I have the intro as:
Tabs:
G|-------------------------7-----5h7h5-7-------|
D|----------7-----7------5---5-7-------------|
A|-9s4--9-9---9-9---9---------------------------|
E|--------------------------------------|
then for the rest
Tabs:
G|-9-9-------------7-----5h7h5-7-----------------|
D|-----7-----7---5---5-7---------------------|
A|-------9-9---9---------------------------|
E|--------------------------------------|
s=slide
h=hammer on

Post a comment