0-9 A B C D E F G H I J K L M N O P Q R S T U V W X Y Z

Billie Eilish — All the good girls go to hell (ver 2) bass tabs



(submitted by jassie sm)
Billie Eilish — all the good girls go to hell

normal tuning

my version
main riff for the whole song


G |————————————————————————————————————————————————————————————————————|
D |—/6b——4—————————————————————————————————————————————————————————————|
A |—————————————————————/7b——4——————————————————————4—6————————————————|
E |————————4—4————7——0—————————0—0———7—9——7h9h7h9————————7—9—7—6—7—4———|


***************

| b bend
| / slide
| h hammer—on

***************


Tablature player for this song:
Billie Eilish - All the good girls go to hell (ver 2) Bass Tab

Other versions of All the good girls go to hell

Comments

2 years, 11 months ago
Report this comment
Permlink Quote
XANNY BASS TAB

Tabs:
G|--------------------------------------|
D|--------------------------------------|
A|--------------------------------------|
E|--5-5--12--12-12--7-9-7--10-----------|
Tabs:
G|--------------------------------------|
D|--------------------------------------|
A|--------------------------------------|
E|--5-5--12--12-12--7-9-7--10-----------|
Tabs:
G|--------------------------------------|
D|--------------------------------------|
A|------------6--2-----------6--2-------|
E|--2--1--0---------2--1--0-------------|
Tabs:
G|--------------------------------------|
D|--------------------------------------|
A|--------------------------------------|
E|--5-5--12--12-12--7-9-7--10-----------|

[tabs][tabs]
G|--------------------------------------|
D|--------------------------------------|
A|--------------------------------------|
E|--5-5--12--12-12--7-9-7--10-----------|

[/tabs][tabs]
G|--------------------------------------|
D|--------------------------------------|
A|------------6--2-----------6--2-------|
E|--2--1--0---------2--1--0-------------|

[/tabs][tabs]
G|--------------------------------------|
D|--------------------------------------|
A|--7-7-7-7-5-5-5-5--------/7-7-5-5-----|
E|------------------7--7-7--------------|

[/tabs][tabs]
G|--------------------------------------|
D|--------------------------------------|
A|-------------------------/7-7-5-5-----|
E|-9-9-8-8-7-7-6-6--7--7-7--------------|

[/tabs][tabs]
G|--------------------------------------|
D|--------------------------------------|
A|--------------------------------------|
E|-9-9-8-8-7-7-6-6--7-------------------|

[/tabs][tabs]
G|--------------------------------------|
D|--------------------------------------|
A|--------------------------------------|
E|--5--12--9-7--------------------------|
[/tabs]

Post a comment