0-9 A B C D E F G H I J K L M N O P Q R S T U V W X Y Z

Blondie Bass Tabs

Mari7
Posts: 190
I only did find the chords but not the tabs..
Thanks for looking!
lol call me
Slamingerrrrr, there's a tab for Call Me here on Big Bass Tabs. Cheers.
no no. i wanted her to phone me lol.
Hugorj
Posts: 306
hehehehe
why is there no private messages?
Mari7, I'm going to work on Fade Away And Radiate from the Parallel Lines album. Do you like this song? Would you check the tab as I write it? Cheers.
johnny [staff]
Posts: 559
slamingerrr, private messages are coming soon.. we're rewriting the whole back-end of the site right now so that it'll be easier to implement new features. the way it's currently done, it's really a pain to do so, so rewriting the whole thing is easier.. but don't worry everyone you won't notice a thing, just new features and faster page loads (hopefully)
bass tab for Fade Away … about 2/3 of the song. Bass rests through intro and first verse & chorus. Please check. Cheers.

Tabs:
Verse 2 & Chorus (4/4 Timing)
G:|--------|--------|--------|--------|--------|--------|--------|--------|
D:|--------|--------|--------|--------|--------|--------|--------|--------|
A:|0>-----0|5>------|0>------|--------|2>------|0>------|2>------|0>------|
E:|--------|--------|--------|2>-----2|--------|--------|--------|--------|
+ + + + + + + + + + + + + + + + + + + + + + + + + + + + + + + +

Fill
G:|--------|--------|--------|--------|
D:|--------|--------|--------|--------|
A:|0>----23|--------|0>----23|--------|
E:|--------|2>------|--------|2>------|
+ + + + + + + + + + + + + + + +

Verse 3 & Chorus
G:|--------|--------|--------|--------|--------|--------|--------|--------|
D:|--------|--------|--------|--------|--------|--------|--------|--------|
A:|0>----00|5>----55|--------|--------|2>------|0>------|2>------|0>------|
E:|--------|--------|5>----5\|2>------|--------|--------|--------|--------|
+ + + + + + + + + + + + + + + + + + + + + + + + + + + + + + + +

Bridge (3/4 Timing)
G:|------|
D:|------|
A:|2-205-|
E:|------|
+ + +

Verse 4 (back to 4/4 Timing)
G:|--------|--------|--------|--------|--------|--------|--------|--------|
D:|--------|--------|--------|--------|----6-9\|----4-7\|----0-4\|2>------|
A:|-------0|5>-----5|2>------|------2/|7>------|5>------|2>------|--------|
E:|0>------|--------|-------2|0>------|--------|--------|--------|--------|
+ + + + + + + + + + + + + + + + + + + + + + + + + + + + + + + +

Verse 5 & Chorus
G:|--------|--------|--------|--------|--------|--------|--------|--------|
D:|--------|--------|--------|--------|--------|--------|--------|--------|
A:|0>------|5>------|0>------|9>----9\|2>------|0>------|2>------|0>------|
E:|--------|--------|--------|--------|--------|--------|--------|--------|
+ + + + + + + + + + + + + + + + + + + + + + + + + + + + + + + +

Fill 2 (eleven)
G:|--------|---------|--------|--------|
D:|--9---9-|--457911\|--4---4-|--9---9-|
A:|79-979-9|57-------|24-424-4|79-979-9|
E:|--------|---------|--------|--------|
+ + + + + + + + + + + + + + + +

Reply to this thread