0-9 A B C D E F G H I J K L M N O P Q R S T U V W X Y Z

Blondie Bass Tabs

Mari7
Posts: 190
Returning to the thread …
Mari7
Posts: 190
I need the tab of “The Tide Is High” live

sounds like its mostly on the e and a with a lil d string for the bass solo stuff. no high e really. i also don't hear many if any of the frets after 12 or so.
Ezzo
Posts: 74
A good thread.. Blondie is always good.
Seem it has a good difference between the two versions, Slam .. but I may be wrong
well yeah there is a breakdown and solo lol. im trying to figure out what song to best equate the solo to. it sounds like a melodic island riff.
Ezzo
Posts: 74
I think “The Fox” uses a simpler bass line in the live version. The album version is complex.
Hugorj
Posts: 307
Please, Mari7, check: (verse part)

Tabs:
G|--4------4-------------------------------|
D|----------------6------4-----------------|
A|2---20-2---20----------------------------|
E|--------------4---40-2---20--------------|
Ezzo
Posts: 74
Yeah, that's cool. Is a simpler version.
Mari7
Posts: 190
Good!
LoudLon [moderator]
Posts: 741
The intro:

Tabs:
G|-----------------|----------------------|
D|-----4---2-1-----|----------------------|
A|-2-----2-----4-2-|--------------------4-|
E|-----------------|-4---44h67--2---22h4--|

G|-----------------|-----------------|
D|-----4---2-1-----|-----------------|
A|-2-----2-----4-2-|-4---4--/9---9---|
E|-----------------|-----------------|

Reply to this thread