0-9 A B C D E F G H I J K L M N O P Q R S T U V W X Y Z

Duran Duran Bass Tabs

Looking good Sid
Here's what I have for the first part of chorus:

Tabs:
G|--------|-------2|----2-2-|--------|--------|-------2|----2-2-|--------|
D|-------1|----1-1-|4>-4-4--|----42--|-------1|----1-1-|4>-4-4--|--2-4-2>|
A|----2-2-|2>-2-2--|-------2|4>-4--46|----2-2-|2>-2-2--|-------2|44-4-4--|
E|4>-4-4--|--------|--------|--------|4>-4-4--|--------|--------|--------|

Please let me know if any of this - intro, verse, this bit of the chorus - sounds wrong to you.
Also, I'm tabbing from the bass cover of the song (see earlier post) rather than the song itself. That means there are several ways for deviations from the recorded song to slither into this tab.I will eventually, before I consider the tab finalized, compare the tab to Duran Duran's recording.
Hugorj
Posts: 330

Thank you for everything Sid!
Hugorj
Posts: 330
It was great!!! You are a great interpreter
Gerr
Posts: 185
Sid, the tab is great but I did not understand the fourth part
Hey Gerr,
I don't know what you mean; can you give me more detail so I can understand your comment?

I have posted the Intro (page 3 of this thread) with two different ways of doing the fretting; also posted the verse (this page) which is essentially the same as the intro riffs but with repeats. I just posted (above) the first part of the chorus. The chorus has two different parts (melodies) and I have only posted the first part, not the entire chorus (still working on that).

I have out-of-town guests I am hosting, so am not able to devote large blocks of time to this. That's why it is being posted in pieces.
Gerr
Posts: 185
Sorry Sid. Checked again, I skipped a verse of the chorus
Gerr
Posts: 185
This topic about John Taylor (Duran Duran) is very good!
Second part of the chorus:

Tabs:
G|--4---4-|--------|--------|--------|--------|--------|--------|--------|
D|-6-6-6-6|--------|6>-6----|------64|4>-464-4|--------|--------|--------|
A|4---4---|0>-0777-|----666-|4>-464--|------7-|0>-0777-|----999-|9>-9----|
E|--------|--------|--------|--------|--------|--------|7>-7----|----999-|

G|--------|--------|--------|--------|--------|--------|--------|--------|
D|--------|--------|6>-6----|------64|4>-464-4|--------|----444-|4>--44--|
A|9>-9----|----777-|----666-|4>-464--|------7-|0>-0777-|2>-2----|--------|
E|----999\|5>-5----|--------|--------|--------|--------|--------|---2---2|

G|--------|
D|44-4----|
A|--------|
E|----2-4-|

Then it's into verse 2, which has slight variations from verse 1:

Tabs:
G|--------|--------|--------|--------|--------|--------|--------|--------|
D|----764-|--------|4>-4764-|------4-|----764-|--------|4>-44-6>|--------|
A|2>-2---2|5>-55-7-|-------2|7>-77---|2>-2---2|5>-55-7-|--------|7>-77975|
E|--------|--------|--------|--------|--------|--------|--------|--------|

the last 8 bars of verse 2 are the same as in verse 1.
Hugorj
Posts: 330
That was awesome!I played the whole song. Perfect!!

Sid, KING OF THE TABS !!!

Reply to this thread