0-9 A B C D E F G H I J K L M N O P Q R S T U V W X Y Z

Loreena McKennitt The Mummers Dance tab

Sidsquishus
Posts: 1108
I have The Book of Secrets and The Visit cds so I can tab Tango To Evora from the album version. Maybe I can start that today. Cheers.
Mari7
Posts: 203
Niiiice
Mari7
Posts: 203
I would like to know more things about Loreena Mckennitt. We can use this space for it!
Gerr
Posts: 186
Quote:
Does anyone hear a bass in Marco Polo?


Marco Polo: It's possible to hear a little bass lines together the percussion
Sidsquishus
Posts: 1108
Thanks Gerr. That's all I was able to come up with - bass is playing few notes in unison with percussion.
Gerr
Posts: 186
News on Evora or Marco Polo?
Sidsquishus
Posts: 1108
No, I was working on Barbarella…and other jobs at home….
Sidsquishus
Posts: 1108
Please check. Tango To Evora, first 1:14.

Tabs:
First Phrase
G:|--------|--------|--------|--------|--------|--------|--------|--------|
D:|--------|--------|--------|--------|--------|--------|--------|--------|
A:|7>------|7>-----7|--------|--------|7>------|7>------|--------|--------|
E:|-------7|--------|7>-----7|7>------|--------|--------|7>-----7|7>----7-|
1 2 3 4 1 2 3 4 1 2 3 4 1 2 3 4 1 2 3 4 1 2 3 4 1 2 3 4 1 2 3 4

G:|--------|--------|
D:|--------|--------|
A:|7>------|>-------|
E:|--------|--------|
1 2 3 4 1 2 3 4

First Phrase Reprise
G:|--------|--------|--------|--------|--------|--------|--------|--------|
D:|--------|-------7|9>------|------9-|--------|--------|--------|--------|
A:|7>------|7>----9-|-------7|--------|7>----7-|7>----7-|--------|--------|
E:|-------7|--------|--------|7>------|-------7|--------|7>-----7|7>----7-|
1 2 3 4 1 2 3 4 1 2 3 4 1 2 3 4 1 2 3 4 1 2 3 4 1 2 3 4 1 2 3 4

G:|--------|--------|
D:|--------|--------|
A:|7>------|7>------|
E:|--------|--------|
1 2 3 4 1 2 3 4

Second Phrase
G:|--------|--------|--------|--------|--------|--------|--------|--------|
D:|7>------|7>----7-|--------|--------|--------|--------|--------|--------|
A:|-------7|--------|7>----7-|7>----7-|-------7|--------|7>------|7>------|
E:|--------|--------|-------7|--------|7>------|7>----7-|-------7|--------|
1 2 3 4 1 2 3 4 1 2 3 4 1 2 3 4 1 2 3 4 1 2 3 4 1 2 3 4 1 2 3 4

Second Phrase Reprise
G:|--------|--------|--------|--------|--------|--------|--------|--------|
D:|7>------|7>----75|--------|-------7|9>----7-|--------|--------|--------|
A:|-------7|--------|7>------|7>----9-|-------9|--------|7>------|>-------|
E:|--------|--------|-------7|--------|--------|7>----7-|--------|--------|
1 2 3 4 1 2 3 4 1 2 3 4 1 2 3 4 1 2 3 4 1 2 3 4 1 2 3 4 1 2 3 4

Thanks!
Sidsquishus
Posts: 1108
This part follows the instrumental part posted above. Please check.

Tabs:
First Phrase with vocal
G:|--------|--------|--------|--------|--------|--------|--------|--------|
D:|--------|-------7|9>----7-|--------|--------|-------7|9>----7-|--------|
A:|7>------|7>----9-|-------9|--------|7>--7>--|7>--7>9-|-------9|--------|
E:|-------7|--------|--------|7>------|-------7|--------|--------|7>----7-|
1 2 3 4 1 2 3 4 1 2 3 4 1 2 3 4 1 2 3 4 1 2 3 4 1 2 3 4 1 2 3 4

G:|--------|--------|
D:|--------|--------|
A:|7>--7>--|7>--7>--|
E:|-------7|--------|
1 2 3 4 1 2 3 4

G:|--------|--------|--------|--------|--------|--------|--------|--------|
D:|--------|-------7|9>-99-7-|------9-|--------|-------7|9>-99-7-|------9-|
A:|7>-77---|7>-77-9-|-------9|--------|7>-77--7|7>-77-9-|-------9|--------|
E:|-------7|--------|--------|7>-77---|------7-|--------|--------|7>-77---|
1 2 3 4 1 2 3 4 1 2 3 4 1 2 3 4 1 2 3 4 1 2 3 4 1 2 3 4 1 2 3 4

G:|--------|--------|
D:|--------|--------|
A:|7>-77>--|7>-77>--|
E:|-------7|--------|
1 2 3 4 1 2 3 4

Second Phrase with vocal
G:|----9>--|--------|--------|--------|--------|--------|--------|--------|
D:|7>-7--7-|7>-77>--|--------|----5>7-|--------|9>-7----|--------|--------|
A:|--------|--------|7>-7----|7>-7----|----9>--|----9>--|7>-7----|7>-77---|
E:|--------|--------|----7>7-|--------|7>------|------7-|----7>7-|------7-|
1 2 3 4 1 2 3 4 1 2 3 4 1 2 3 4 1 2 3 4 1 2 3 4 1 2 3 4 1 2 3 4

G:|----9>--|---------|--------|--------|--------|--------|--------|--------|
D:|7>-7--7-|7>--7>-7-|--------|----5>-7|9>------|9>----9-|--------|--------|
A:|--------|--------5|7>-7----|7>-7----|----9>--|----9>--|7>-77>--|7>------|
E:|--------|---------|----7>7-|--------|--------|--------|-------7|--------|
1 2 3 4 1 2 3 4 1 2 3 4 1 2 3 4 1 2 3 4 1 2 3 4 1 2 3 4 1 2 3 4

Cheers.
Gerr
Posts: 186
I'm in a bit of trouble in this tab. I'm not managing to fit the notes at the right time.

Reply to this thread