0-9 A B C D E F G H I J K L M N O P Q R S T U V W X Y Z

Loreena McKennitt The Mummers Dance tab

Sidsquishus
Posts: 1034
4 months ago
Report this message
Quote
Mari7 - I'm working on your request. This gets to about 1 minute 30 seconds in the live (Nights At The Alhambra) version. Please check. Cheers!

Tabs:
Intro
G:|--------|--------|--------|--------|--------|--------|--------|--------|
D:|--------|3--3333-|--------|-----3--|--------|--------|--------|--------|
A:|5>-5>555|--------|3>-33-3-|35-35-35|1>-11-1-|3>-3>13-|5>-5>35-|5>-5>03-|
E:|--------|--------|--------|--------|--------|--------|--------|--------|
1 2 3 4 1 2 3 4 1 2 3 4 1 2 3 4 1 2 3 4 1 2 3 4 1 2 3 4 1 2 3 4

G:|--------|--------|--------|--------|--------|--------|--------|--------|
D:|--------|3>-33-3-|--------|--------|--------|--------|--------|--------|
A:|5>-55-5-|--------|3>-3>13-|5>-5>03-|1>-11-1-|3>-3>35-|--------|--------|
E:|--------|--------|--------|--------|--------|--------|3>-3>33-|3>------|
1 2 3 4 1 2 3 4 1 2 3 4 1 2 3 4 1 2 3 4 1 2 3 4 1 2 3 4 1 2 3 4

Verse
G:|--------|--------|--------|--------|--------|--------|--------|--------|
D:|--------|--------|--------|--------|--------|--------|--------|--------|
A:|5>-5>55-|3>-3>3>-|--------|--------|55-5>555|3>-3>3>-|------3-|5>-5--5-|
E:|--------|--------|5>-5>5>-|3>-3>33-|--------|--------|5>-5>5--|----56--|
1 2 3 4 1 2 3 4 1 2 3 4 1 2 3 4 1 2 3 4 1 2 3 4 1 2 3 4 1 2 3 4

G:|--------|--------|--------|--------|--------|--------|--------|--------|
D:|--------|--------|--------|--------|--------|--------|--------|--------|
A:|5>-5>555|3>-3>333|--------|--------|55-5>50-|3>-3>33-|--------|5>55>55-|
E:|--------|--------|5>-55>5-|33>3>33-|--------|--------|5>55>555|--------|
1 2 3 4 1 2 3 4 1 2 3 4 1 2 3 4 1 2 3 4 1 2 3 4 1 2 3 4 1 2 3 4

Chorus
G:|--------|--------|--------|--------|--------|--------|--------|--------|
D:|--------|--------|5>55>35-|--------|--------|--------|5>55>35-|--------|
A:|5>-5--5-|3>-3--3-|--------|5>-5---3|5>-5---7|3>-3--3-|--------|5>-5>05-|
E:|----56--|----35--|--------|----556-|----556-|----35--|--------|--------|
1 2 3 4 1 2 3 4 1 2 3 4 1 2 3 4 1 2 3 4 1 2 3 4 1 2 3 4 1 2 3 4

Fill
G:|--------|--------|--------|--------|
D:|------5-|--------|----5---|--------|
A:|3>-3>3--|1>--3>--|5555-35-|5--5>---|
E:|--------|--------|--------|-65-----|
1 2 3 4 1 2 3 4 1 2 3 4 1 2 3 4
Mari7
Posts: 190
What a nice surprize Sid! I checked and it's perfect, all notes are right (although I have found the chorus a little difficult)
Sidsquishus
Posts: 1034
Very fast! Thank you.

I have to try the chorus twice before I get it right - the slight rhythmic changes are tripping me up still!

I think the rest of the song should come pretty fast - maybe slight variations from this only. Cheers.

Sidsquishus
Posts: 1034
Mari7- some news you will not like so much. I worked on verse 2 and the second chorus today; during the verse, I came to a note that was lower than my low E. So I went and looked at the video, and he (Tim Landers) is playing a five string bass.



So here is verse 2 and the following chorus and fill.

Tabs:
Verse Reprise
G:|--------|--------|--------|--------|--------|--------|--------|--------|
D:|--------|--------|--------|--------|--------|--------|--------|--------|
A:|5>-5>-02|3>-3>--3|--------|--------|5>-5>502|3>-3>--3|------3-|5555--5-|
E:|--------|--------|5>-5>--0|3>-333--|--------|--------|5>-5>5-5|----56--|
B:|--------|--------|--------|------3-|--------|--------|--------|--------|
1 2 3 4 1 2 3 4 1 2 3 4 1 2 3 4 1 2 3 4 1 2 3 4 1 2 3 4 1 2 3 4

G:|--------|--------|--------|--------|--------|--------|--------|--------|
D:|--------|--------|--------|--------|--------|--------|--------|--------|
A:|5>-5>555|3>-3>--3|--------|--------|5>-5005-|3>-3>033|--------|--------|
E:|--------|--------|5>-5>--5|3>-3>0-0|--------|--------|5>-----5|--------|
B:|--------|--------|--------|------3-|--------|--------|--------|3>------|
1 2 3 4 1 2 3 4 1 2 3 4 1 2 3 4 1 2 3 4 1 2 3 4 1 2 3 4 1 2 3 4

Chorus Reprise
G:|--------|--------|--------|--------|--------|--------|--------|--------|
D:|--------|--------|--------|--------|--------|--------|5>-53-5-|--------|
A:|--------|3>-3--3-|--------|5>-5--5-|5>-5--5-|3>-3--3-|-----5--|5>-555--|
E:|-----35-|----35--|3>33>13-|----56--|----55--|----35--|--------|------55|
B:|3>-3>---|--------|--------|--------|--------|--------|--------|--------|
1 2 3 4 1 2 3 4 1 2 3 4 1 2 3 4 1 2 3 4 1 2 3 4 1 2 3 4 1 2 3 4

Fill Reprise
G:|--------|--------|--------|--------|
D:|------5-|--------|----5---|--------|
A:|3>-3>3--|1>--3>--|5555-35-|--------|
E:|--------|--------|--------|--------|
B:|--------|--------|--------|3>-3>---|
1 2 3 4 1 2 3 4 1 2 3 4 1 2 3 4

Mari7
Posts: 190
Oh no! I don't like 5 stings bass.. I'll try to repeat verse 1
Sidsquishus
Posts: 1034
Two options: Drop D tuning on your four string and a Drop D tab, or play a D that is an octave higher (at A5) instead of the low D (or even two octaves at G7).

I think both options would be fine, though the fretting is more movement in Drop D. But the tempo is not fast, so more movement is probably not a problem.
Sidsquishus
Posts: 1034
Here's the rest of the tab for The Mummers' Dance played with a five string.

Tabs:
Interlude
G:|--------|--------|--------|--------|--------|--------|--------|--------|
D:|--------|3--3333-|--------|--------|--------|--------|--------|--------|
A:|5>-0505-|--------|3>-3>13-|35-3558\|1>-1111-|3>-333--|--------|--------|
E:|--------|--------|--------|--------|--------|------5\|3>-->---|>--->---|
B:|--------|--------|--------|--------|--------|--------|--------|--------|
1 2 3 4 1 2 3 4 1 2 3 4 1 2 3 4 1 2 3 4 1 2 3 4 1 2 3 4 1 2 3 4

Verse 3
G:|--------|--------|--------|--------|--------|--------|--------|--------|
D:|--------|--------|--------|--------|--------|--------|--------|--------|
A:|5>-5>-55|3>-3>--3|--------|--------|5>-5>--5|3>-3>--3|------7-|5--5--5-|
E:|--------|--------|5>-55>-0|3>-3333-|--------|--------|5>-5>5-5|----56--|
B:|--------|--------|--------|--------|--------|--------|--------|--------|
1 2 3 4 1 2 3 4 1 2 3 4 1 2 3 4 1 2 3 4 1 2 3 4 1 2 3 4 1 2 3 4

G:|--------|--------|--------|--------|--------|---------|--------|--------|
D:|--------|--------|--------|--------|--------|-------7\|--------|--------|
A:|5>-5>-55|3>-3>--3|--------|--------|5>-5>---|3>-3>----|--------|--------|
E:|--------|--------|55>55>5-|3>-3333\|--------|---------|5-5-5-5\|--------|
B:|--------|--------|--------|--------|--------|---------|--------|3>------|
1 2 3 4 1 2 3 4 1 2 3 4 1 2 3 4 1 2 3 4 1 2 3 4 1 2 3 4 1 2 3 4

Double Chorus
G:|--------|--------|--------|--------|--------|--------|--------|--------|
D:|--------|--------|--------|--------|--------|--------|5--55-5-|--------|
A:|5--5-05-|3--3-03-|--------|5--5--5-|5--5-050|3--3-03-|-----5--|5--5--55|
E:|----3---|----3---|3--3313-|----56--|----3---|----3---|--------|----55--|
B:|--------|--------|--------|--------|--------|--------|--------|--------|
1 2 3 4 1 2 3 4 1 2 3 4 1 2 3 4 1 2 3 4 1 2 3 4 1 2 3 4 1 2 3 4

G:|--------|--------|--------|--------|--------|--------|--------|--------|
D:|--------|--------|--------|--------|--------|--------|--------|----457-|
A:|5--5--02|3--3-03-|--------|5>-5--5-|5--5--02|3--3-03-|--------|5>-5----|
E:|--------|----3---|3--33-1-|----56-6|--------|----3---|3--33-3-|--------|
B:|----33--|--------|--------|--------|----33--|--------|--------|--------|
1 2 3 4 1 2 3 4 1 2 3 4 1 2 3 4 1 2 3 4 1 2 3 4 1 2 3 4 1 2 3 4

Double Fill
G:|--------|--------|--------|--------|--------|--------|--------|--------|
D:|--------|--------|----5---|----457-|--------|--------|----77--|--------|
A:|3>-3>33-|1>--3>--|5555-35-|--------|3>-3>---|1>--3>--|5555--5-|--------|
E:|--------|--------|--------|--------|--------|--------|--------|--------|
B:|--------|--------|--------|3>-3----|--------|--------|--------|3>-3>---|
1 2 3 4 1 2 3 4 1 2 3 4 1 2 3 4 1 2 3 4 1 2 3 4 1 2 3 4 1 2 3 4

Outro
G:|--------|--------|--------|--------|--------|--------|
D:|----77--|--------|----77--|--------|--------|--------|
A:|5555--5-|--------|5555--5-|--------|--------|--------|
E:|--------|--------|--------|--------|--------|--------|
B:|--------|3>-3>---|--------|3>-->---|>--->---|>--->---|
1 2 3 4 1 2 3 4 1 2 3 4 1 2 3 4 1 2 3 4 1 2 3 4
Sidsquishus
Posts: 1034
And here's the five string tab transposed to a 4 string in Drop D. Please let me know if this Drop D version works for you, Mari7, or if you find any mistakes. I think the fretting is mostly OK, but if this doesn't work, I could make a tab for 1 step down tuning (D G C F) which will play more like the fretting on a 5 string bass.

Tabs:
Intro
G:|--------|--------|--------|--------|--------|--------|--------|--------|
D:|--------|3--3333-|--------|-----3--|--------|--------|--------|--------|
A:|5>-5>555|--------|3>-33-3-|35-35-35|1>-11-1-|3>-3>13-|5>-5>35-|5>-5>03-|
D:|--------|--------|--------|--------|--------|--------|--------|--------|
1 2 3 4 1 2 3 4 1 2 3 4 1 2 3 4 1 2 3 4 1 2 3 4 1 2 3 4 1 2 3 4

G:|--------|--------|--------|--------|--------|--------|--------|--------|
D:|--------|3>-33-3-|--------|--------|--------|--------|--------|--------|
A:|5>-55-5-|--------|3>-3>13-|5>-5>03-|1>-11-1-|3>-3>35-|--------|--------|
D:|--------|--------|--------|--------|--------|--------|5>-5>55-|5>------|
1 2 3 4 1 2 3 4 1 2 3 4 1 2 3 4 1 2 3 4 1 2 3 4 1 2 3 4 1 2 3 4

Verse 1
G:|--------|--------|--------|--------|--------|--------|--------|--------|
D:|--------|--------|--------|--------|--------|--------|--------|--------|
A:|5>-5>55-|3>-3>3>-|--------|--------|55-5>555|3>-3>3>-|------3-|5>-5--5-|
D:|--------|--------|7>-7>7>-|5>-5>55-|--------|--------|7>-7>7--|----78--|
1 2 3 4 1 2 3 4 1 2 3 4 1 2 3 4 1 2 3 4 1 2 3 4 1 2 3 4 1 2 3 4

G:|--------|--------|--------|--------|--------|--------|--------|--------|
D:|--------|--------|--------|--------|--------|--------|--------|--------|
A:|5>-5>555|3>-3>333|--------|--------|55-5>50-|3>-3>33-|--------|5>55>55-|
D:|--------|--------|7>-77>7-|55>5>55-|--------|--------|7>77>777|--------|
1 2 3 4 1 2 3 4 1 2 3 4 1 2 3 4 1 2 3 4 1 2 3 4 1 2 3 4 1 2 3 4

Chorus
G:|--------|--------|--------|--------|--------|--------|--------|--------|
D:|--------|--------|5>55>35-|--------|--------|--------|5>55>35-|--------|
A:|5>-5--5-|3>-3-03-|--------|5>-5---3|5>-5---7|3>-3-03-|--------|5>-5>05-|
D:|----78--|----5---|--------|----778-|----778-|----5---|--------|--------|
1 2 3 4 1 2 3 4 1 2 3 4 1 2 3 4 1 2 3 4 1 2 3 4 1 2 3 4 1 2 3 4

Fill
G:|--------|--------|--------|--------|
D:|------5-|--------|----5---|--------|
A:|3>-3>3--|1>--3>--|5555-35-|5--5>---|
D:|--------|--------|--------|-87-----|
1 2 3 4 1 2 3 4 1 2 3 4 1 2 3 4

Verse 2
G:|--------|--------|--------|--------|--------|--------|--------|--------|
D:|--------|--------|--------|--------|--------|--------|--------|--------|
A:|5>-5>-02|3>-3>--3|--------|--------|5>-5>502|3>-3>--3|------3-|5555--5-|
D:|--------|--------|7>-7>--2|5>-5550-|--------|--------|7>-7>7-7|----78--|
1 2 3 4 1 2 3 4 1 2 3 4 1 2 3 4 1 2 3 4 1 2 3 4 1 2 3 4 1 2 3 4

G:|--------|--------|--------|--------|--------|--------|--------|--------|
D:|--------|--------|--------|--------|--------|--------|--------|--------|
A:|5>-5>555|3>-3>--3|--------|--------|5>-5005-|3>-3>033|--------|--------|
D:|--------|--------|7>-7>--7|5>-5>202|--------|--------|7>-----7|0>------|
1 2 3 4 1 2 3 4 1 2 3 4 1 2 3 4 1 2 3 4 1 2 3 4 1 2 3 4 1 2 3 4

Chorus Reprise
G:|--------|--------|--------|--------|--------|--------|--------|--------|
D:|--------|--------|--------|--------|--------|--------|5>-53-5-|--------|
A:|--------|3>-3-03-|--------|5>-5--5-|5>-5--5-|3>-3-03-|-----5--|5>-555--|
D:|0>-0>57-|----5---|5>55>35-|----78--|----77--|----5---|--------|------77|
1 2 3 4 1 2 3 4 1 2 3 4 1 2 3 4 1 2 3 4 1 2 3 4 1 2 3 4 1 2 3 4

Fill Reprise
G:|--------|--------|--------|--------|
D:|------5-|--------|----5---|--------|
A:|3>-3>3--|1>--3>--|5555-35-|--------|
D:|--------|--------|--------|0>-0>---|
1 2 3 4 1 2 3 4 1 2 3 4 1 2 3 4

Interlude
G:|--------|--------|--------|--------|--------|--------|--------|--------|
D:|--------|3--3333-|--------|--------|--------|--------|--------|--------|
A:|5>-0505-|--------|3>-3>13-|35-3558\|1>-1111-|3>-333--|--------|--------|
D:|--------|--------|--------|--------|--------|------7\|5>-->---|>--->---|
1 2 3 4 1 2 3 4 1 2 3 4 1 2 3 4 1 2 3 4 1 2 3 4 1 2 3 4 1 2 3 4

Verse 3
G:|--------|--------|--------|--------|--------|--------|--------|--------|
D:|--------|--------|--------|--------|--------|--------|--------|--------|
A:|5>-5>-55|3>-3>--3|--------|--------|5>-5>--5|3>-3>--3|------7-|5--5--5-|
D:|--------|--------|7>-77>-2|5>-5555-|--------|--------|7>-7>7-7|----78--|
1 2 3 4 1 2 3 4 1 2 3 4 1 2 3 4 1 2 3 4 1 2 3 4 1 2 3 4 1 2 3 4

G:|--------|--------|--------|--------|--------|---------|--------|--------|
D:|--------|--------|--------|--------|--------|-------7\|--------|--------|
A:|5>-5>-55|3>-3>--3|--------|--------|5>-5>---|3>-3>----|--------|--------|
D:|--------|--------|77>77>7-|5>-5555\|--------|---------|7-7-7-7\|0>------|
1 2 3 4 1 2 3 4 1 2 3 4 1 2 3 4 1 2 3 4 1 2 3 4 1 2 3 4 1 2 3 4

Double Chorus
G:|--------|--------|--------|--------|--------|--------|--------|--------|
D:|--------|--------|--------|--------|--------|--------|5--55-5-|--------|
A:|5--5-05-|3--3-03-|--------|5--5--5-|5--5-050|3--3-03-|-----5--|5--5--55|
D:|----5---|----5---|5--5535-|----78--|----5---|----5---|--------|----77--|
1 2 3 4 1 2 3 4 1 2 3 4 1 2 3 4 1 2 3 4 1 2 3 4 1 2 3 4 1 2 3 4

G:|--------|--------|--------|--------|--------|--------|--------|--------|
D:|--------|--------|--------|--------|--------|--------|--------|----457-|
A:|5--5--02|3--3-03-|--------|5>-5--5-|5--5--02|3--3-03-|--------|5>-5----|
D:|----00--|----5---|5--55-3-|----78-8|----00--|----5---|5--55-5-|--------|
1 2 3 4 1 2 3 4 1 2 3 4 1 2 3 4 1 2 3 4 1 2 3 4 1 2 3 4 1 2 3 4

Double Fill
G:|--------|--------|--------|--------|--------|--------|--------|--------|
D:|--------|--------|----5---|----457-|--------|--------|----77--|--------|
A:|3>-3>33-|1>--3>--|5555-35-|--------|3>-3>---|1>--3>--|5555--5-|--------|
E:|--------|--------|--------|0>-0----|--------|--------|--------|0>-0>---|
1 2 3 4 1 2 3 4 1 2 3 4 1 2 3 4 1 2 3 4 1 2 3 4 1 2 3 4 1 2 3 4

Outro
G:|--------|--------|--------|--------|--------|--------|
D:|----77--|--------|----77--|--------|--------|--------|
A:|5555--5-|--------|5555--5-|--------|--------|--------|
E:|--------|0>-0>---|--------|0>-->---|>--->---|>--->---|
1 2 3 4 1 2 3 4 1 2 3 4 1 2 3 4 1 2 3 4 1 2 3 4
Mari7
Posts: 190
Great, Sid!!! 4 strings version works well
TheDude [staff]
Posts: 224
sid, you are a gentleman and a scholar.
Sidsquishus
Posts: 1034
Quote:
sid, you are a gentleman and a scholar.

Thanks, though I'm not sure it is true.

Reply to this thread