0-9 A B C D E F G H I J K L M N O P Q R S T U V W X Y Z

Duran Duran Bass Tabs

Sidsquishus
Posts: 1115
Hugorj, I am not working on Before the Rain, only trying to help you. I am not going to post a tab of this song. You are welcome to if you come up with a tab you like well enough.

Good luck with Matter of Feeling. I like the melody.

Also, my apologies on not getting to Sunrise. I have not had any time for tabbing for several days.
Hugorj
Posts: 336
“A Matter of Feeling” submitted! jjoe and I checked twice and seems to be cool. Hope you enjoy!

One problem: jjoe only helps me when he also likes the music because he is a boring guitarist (hehe joke)
Sidsquishus
Posts: 1115
Perhaps jjoe likes Before the Rain?
Hugorj
Posts: 336
He said he likes but the volume of the bass of the music is very low in the missing part. So he's with difficult to find the right notes
Sidsquishus
Posts: 1115
This is what I have for the first half of Sunrise (drop d tuning) :

Tabs:
Intro (drums and keyboards)
G:|----------------|----------------|
D:|----------------|----------------|
A:|-------R--------|------R---------|
D:|----------------|--------------7\|
1 & 2 & 3 & 4 & 1 & 2 & 3 & 4 &

Verse x2
G:||----------------|----------------|----------------|----------------||
D:||----------------|----------------|----------------|----------------||
A:||----------------|------------33-5|----------------|------------33-5||
D:||00-000-000-000-0|00-000-055-5----|00-000-000-000-0|00-000-055-5----||
1 & 2 & 3 & 4 & 1 & 2 & 3 & 4 & 1 & 2 & 3 & 4 & 1 & 2 & 3 & 4 &

Chorus x2
G:||----------------|----------------|----------------|----------------||
D:||55-555-5--------|33-333-3--------|55-555-5--------|33-333-3--------||
A:||--------55-555-5|--------55-555-5|--------55-555-5|--------55-555-5||
D:||----------------|----------------|----------------|----------------||
1 & 2 & 3 & 4 & 1 & 2 & 3 & 4 & 1 & 2 & 3 & 4 & 1 & 2 & 3 & 4 &

Repeat Verse
Repeat Chorus

Sound OK?
Hugorj
Posts: 336
OK!

And the solo part at 2'17“ - 2'39”?

Did you check “Matter of Feeling”?

Cheers
Sidsquishus
Posts: 1115
Thanks Hugorj. I have only this much so far - I will work on the rest when I have time.

I have not seen the Matter of Feeling tab yet - it had not been posted when I logged off yesterday.

(I am a single parent right now - very busy - wife is out of town for work!)

Cheers.
Mari7
Posts: 203
Hugorj, Sid, Danny, you have done a great job here. Whenever I check there's something new. This is truly a place where there is a musical partnership. I think that's pretty cool, joint efforts towards a single goal: the music! Congratulations!
And I've always been a fan of the work of JT,but only here I could perceive depth and harmonic beauty of this guy, my favorite bass player (as well as all of you, of course!)
Hugorj
Posts: 336
Thanks, Mari7
DANNYBASSMAN93 [top submitter]
Posts: 510
DANNYBASSMAN93 here, and i approve this message

Reply to this thread