0-9 A B C D E F G H I J K L M N O P Q R S T U V W X Y Z

Duran Duran Bass Tabs

DANNYBASSMAN93 [top submitter]
Posts: 510
hey guys add me on facebook so we can chat and keep up on the tabs while im of from the site for a while.

Daniel Castro Valdes
if you cant find me just write my email on the facebook search:
danieli.castro8@gmail.com
Mari7
Posts: 200
Danny I'm sad that you go on leave. You help us much here
Sidsquishus
Posts: 1084
Quote:
Hugorj, Sid, Danny, you have done a great job here. Whenever I check there's something new. This is truly a place where there is a musical partnership. I think that's pretty cool, joint efforts towards a single goal: the music! Congratulations!And I've always been a fan of the work of JT,but only here I could perceive depth and harmonic beauty of this guy, my favorite bass player (as well as all of you, of course!)

Yes, I am also glad that Hugorj started this thread. I did not pay attention to Duran Duran before this, but now I know there is a great deal of great music by this band, and JT!
Sidsquishus
Posts: 1084
Here's the rest of Sunrise. I'm reposting the second chorus because I had the ending (last three notes) wrong in my earlier post. You'll notice that this is a tab for a 5 string, but for this part, everything is played on the E through G strings; just ignore the line for the B string.

I have tried to filter out everything but the bass in the bass solo/interlude section - I think this is what the bass plays. Not positive, though.

Please check. Any errors you find, let me know. Thanks!

Tabs:
Chorus Reprise (Chorus 2)
G:|----------------|----------------|----------------|----------------|
D:|55-555-5--------|33-333-3--------|55-555-5--------|33-333-3--------|
A:|--------55-555-5|--------55-555-5|--------55-555-5|--------55-555-5|
E:|----------------|----------------|----------------|----------------|
B:|----------------|----------------|----------------|----------------|
1 & 2 & 3 & 4 & 1 & 2 & 3 & 4 & 1 & 2 & 3 & 4 & 1 & 2 & 3 & 4 &

G:|----------------|----------------|----------------|----------------|
D:|55-555-5--------|33-333-3--------|55-555-5--------|33-333-3--------|
A:|--------55-555-5|--------55-555-5|--------55-555-5|--------55-5-030|
E:|----------------|----------------|----------------|----------------|
B:|----------------|----------------|----------------|----------------|
1 & 2 & 3 & 4 & 1 & 2 & 3 & 4 & 1 & 2 & 3 & 4 & 1 & 2 & 3 & 4 &

Bass Solo & Interlude
G:|------7----------|------7----------|------7----------|------7----------|
D:|-----------------|-----------------|-----------------|-----------------|
A:|3h5------5--5-030|3h5------5--5-030|3h5------5--5-030|3h5------5--5-030|
E:|-----------------|-----------------|-----------------|-----------------|
B:|-----------------|-----------------|-----------------|-----------------|
1 & 2 & 3 & 4 & 1 & 2 & 3 & 4 & 1 & 2 & 3 & 4 & 1 & 2 & 3 & 4 &

G:|------7----------|------7----------|
D:|-----------------|-----------------|
A:|3h5------5--5-030|3h5------5--5-030|
E:|-----------------|-----------------|
B:|-----------------|-----------------|
1 & 2 & 3 & 4 & 1 & 2 & 3 & 4 &

Chorus Reprise II
G:|-----------------|----------------|-----------------|----------------|
D:|-----------------|----------------|-----------------|--------------3>|
A:|10>----\-5>------|8>----\-5>------|10>----8-5>------|8>------555555--|
E:|-----------------|----------------|-----------------|----------------|
B:|-----------------|----------------|-----------------|----------------|
1 & 2 & 3 & 4 & 1 & 2 & 3 & 4 & 1 & 2 & 3 & 4 & 1 & 2 & 3 & 4 &

Outro Chorus
G:|----------------|----------------|----------------|----------------|
D:|55-555-5--------|33-333-344-444-4|55-555-5--------|33-333-3--------|
A:|--------55-555-5|----------------|--------55-555-5|--------55-555-5|
E:|----------------|----------------|----------------|----------------|
B:|----------------|----------------|----------------|----------------|
1 & 2 & 3 & 4 & 1 & 2 & 3 & 4 & 1 & 2 & 3 & 4 & 1 & 2 & 3 & 4 &

G:|----------------|----------------|----------------|----------------|
D:|55-555-5--------|33-333-3--------|55-555-5--------|----------------|
A:|--------55-555-5|--------55-555-5|--------55-555-5|8!------R-------|
E:|----------------|----------------|----------------|----------------|
B:|----------------|----------------|----------------|----------------|
1 & 2 & 3 & 4 & 1 & 2 & 3 & 4 & 1 & 2 & 3 & 4 & 1 & 2 & 3 & 4 &
Hugorj
Posts: 330
Very cool!
Sidsquishus
Posts: 1084
Thanks for checking, Hugorj. Mari7, Gerr, could you also check - especially the bass solo/interlude part? Thanks.
Mari7
Posts: 200
For me it's cool too.
Sidsquishus
Posts: 1084
Thank you. Two thumbs up so I will submit the tabs. Cheers.
Sidsquishus
Posts: 1084
I've submitted a tab for Mari7's request of Do You Believe In Shame. Please let me know if you find an error.

Mari7 - you could have tabbed this one, or at least the majority of it, pretty easily I think. Cheers.
bass freak
Posts: 305
Sid, your working wonders my man!

Reply to this thread