0-9 A B C D E F G H I J K L M N O P Q R S T U V W X Y Z

Duran Duran Bass Tabs

Hugorj
Posts: 307
Sid, girl panic! seems to be this. But I put one note more. Check:

Tabs:
G|-----------------6-6------------------|
D|--4-----7----9------------------------|
A|--------------------------------------|
E|2--255---5/7--99----------------------|
These Duran Duran tabs are coming along nicely, well done everyone!
Mari7
Posts: 190
It would be great to have these guys in a band.

Hugorj and Sid, I checked girl panic! tab. That is correct
Thanks Mari7. Thanks softcell62. Good work Hugorj!

All the notes Hugorj has in the intro/chorus fit with the song being in F# minor (F# G# A B C# D E F#), so these notes (a subset of them actually) will probably be what is used in the verse. So Hugorj, as you work on the verse, first try these notes. And as softcell62 said, well done everyone! Cheers.
Gerr
Posts: 175
The tablature Girl Panic! is great. John Taylor shows its rhythmical variety in it. Thanks Hugorj and Sid.

Question: These notes are playing during all song?
Hi Gerr,
I think the tab Hugorj posted above is only for the intro and chorus of Girl Panic! The verse is different. Hugorj may be working on it.
Hugorj
Posts: 307
1st part (correct if I'm wrong - probably wrong)

Tabs:
G|--------------------------------------|
D|--------------------------------------|
A|-------9-9-------7-7-------5-5--------|
E|9-99-99-9-9-7-7-7-7-7-5-5-5-5-533-----|
Mari7
Posts: 190
Hugorj, I think it isn't similar to the album version. It would be nice if someone else check it out because I might be wrong.
Hey all,
I have a small change to Hugorj's Girl Panic intro:

I messed up the formatting, see the next message for the tab

Also, just before this is played, at the end of the drums bit of the intro, you can lead into the bass part by doing a slide up from F# (E2) to B (E7) and back down.
Tabs:
G|----||-----------------6-6||
D|----||-4----7----9--------||
A|----||--------------------||
E|2/7\||2--2/5--5/7--7/9----||

Reply to this thread