0-9 A B C D E F G H I J K L M N O P Q R S T U V W X Y Z

What Tab Are You Writing Right Now?

LoudLon [moderator]
Posts: 842
8 months ago
Report this message
Quote
Figured this would be a nice way of seeing where everyone is in regards to their upcoming tabs. Like, a while back Danny posted a tab for The Fixer by Pearl Jam; I was already 3/4 of my way through my tab of the same song and was like, dammit! I went ahead and finished it and submitted it anyway, but had I known he already had one in the works I probably wouldn't have bothered. As it is I felt like I stepped on his toes a bit. At any rate, I thought it might be cool to see what folks are working on.

I have a mighty long to-do list myself, but at the moment I'm working on Sweet Love by Anita Baker, That Song by Big Wreck and Caribbean Queen by Billy Ocean. Oh, and Love Your Money by Daisy Chainsaw.

How about you?
Cheekychuck
Posts: 243
Almost finished “ as she's walking away ” by Zac Brown Band
johnny [staff]
Posts: 690
i'm working on alive and kicking by mr big
johnny [staff]
Posts: 690
I'm terribly busy at the moment so if someone wants to finish it, here's what I have at the moment

Tabs:
G|--------------------------|--------------------------|
D|--------------------------|--------------------------|
A|--------------------------|--------------------------|
E|--------------------------|-----------------------3--|

G
G|--------------------------|--------------------------|
D|--------------------------|--------------------------|
A|--------------------------|--------------------------|
E|--3--3--3--3--3--3--3--3--|--3--3--3--3--3--3--3--1--|
| | | | | | | | | | | | | | | |
---------- ---------- ---------- ----------

F C
G|--------------------------|--------------------------|
D|--------------------------|--------------------------|
A|--------------------------|-----------------------3--|
E|--1--1--1--1--1--1--1--1--|--1--1--1--1--1--2--3-----|
| | | | | | | | | | | | | | | |
---------- ---------- ---------- ----------

G
G|--------------------------|--------------------------|
D|--------------------------|--------------------------|
A|--3--3--3--3--3--3--3--3--|--3--3--3--3--3--1--2-----|
E|--------------------------|-----------------------3--|
| | | | | | | | | | | | | | | |
---------- ---------- ---------- ----------

G Black
G|--------------------------|--------------------------|
D|--------5-----5--5--------|--------------------------|
A|--------------------4s3-1-|--3--2--------------------|
E|--3--3-----3--------------|--------3--0--3--1-----3--|
| | | | | | | | | | | | | | | | |
---------- ---- ===-- ---------- ----------

top blazin ...
G F
G|--------------------------|--------------------------|
D|--------5-----------------|--------------------------|
A|--------------------------|--------------------------|
E|-----3-----3--3--3--3--3--|--3--3--3--3--3--3--0--1--|
| | | | | | | | | | | | | | | |
---------- ---------- ---------- ----------

F C
G|--------------------------|--------------------------|
D|--------------------------|--------------------------|
A|--------------------------|-----------------------3--|
E|-----1--1--1--1--1--1--1--|--1--1--1--1--1--1--------|
| | | | | | | | | | | | | | | |
---------- ---------- ---------- ----------

ray blastin on the radio ...
G
G|--------------------------|--------------------------|
D|--------------------------|--------------------------|
A|-----3--3--3--3--3--3--3--|--3--3--3--3--3--1--2-----|
E|--------------------------|--------------------------|
| | | | | | | | | | | | | | | |
---------- ---------- ---------- ----------

my ba-
G|--------------------------|--------------------------|
D|--------------------------|-----------------------0--|
A|--------------------------|--------------------3-----|
E|-----3--3--3--3--3--3--3--|--3--3--3--3--1--3--------|
| | | | | | | | | | | | | | | |
---------- ---------- ---------- ----------

-by's by my side
G F
G|--------------------------|--------------------------|
D|--------5-----------------|--------------------------|
A|--------------------------|--------------------------|
E|-----3-----3--3--3--3--3--|--3--3--3--3--3--3--0--1--|
| | | | | | | | | | | | | | | |
---------- ---------- ---------- ----------

F C
G|--------------------------|--------------------------|
D|--------------------------|--------------------------|
A|--------------------------|-----------------------3--|
E|-----1--1--1--1--1--1--1--|--1--1--1--1--1--1--------|
| | | | | | | | | | | | | | | |
---------- ---------- ---------- ----------

runnin wild and runnin free just like
G|--------------------------|--------------------------|
D|--------------------------|--------------------------|
A|-----3--3--3--3--3--3--3--|--3--3--3--3--3--1--2-----|
E|--------------------------|--------------------------|
| | | | | | | | | | | | | | | |
---------- ---------- ---------- ----------

you did momma
G C
G|--------------------------|--------------------------|
D|--------------------------|-----5--5--5-----5--------|
A|--------------------------|--------------5-----------|
E|-----3--3--3--3--3--3--3--|--3--------------------3--|
| | | | | | | | | | | | | | | |
---------- ---------- ---------- ----------

Don't know where we're going
G|--------------5-----------|--------------------------|
D|--------5-----------------|--------------------------|
A|--3--3-----3-----3-----5--|--5--5--5--5--5--------3--|
E|--------------------------|-----------------6--------|
| | | | | | | | | | | | | | |
---------- - - ---------- ----------

yeah when we get...
G|--------------------------|--------------------------|
D|--------4--5--------------|-----4--5--4--------------|
A|--3--3--------3--------5--|--5-----------5--5-----3--|
E|-----------------3--------|--------------------------|
| | | | | | | | | | | | | | | |
---------- ---------- ---------- ----------

we're gonna follow
G|-----------------5--------|--------------------------|
D|--------------------------|-----------------------3--|
A|--3--3--3--3--3--------5--|--5--5--5--5--5--3--3-----|
E|--------------------------|--------------------------|
| | | | | | | | | | | | | | | |
---------- ---------- ---------- ----------

jump
G|--------------------------|--------------------------|
D|--3-----------------------|--3-----------------------|
A|--------------------------|--------------------------|
E|--------------------------|-----------------------3--|
| | | | | | | | | | | | | | | |
---------- ---------- ---------- ----------

into the fire keep our hope alive and kick-
G|--------------------------|--------------------------|
D|--------5--5--------------|--------------------------|
A|--------------------------|-----------------------1--|
E|--3--3--------3--3--3--3--|--3--3--3--3--3--3--3-----|
| | | | | | | | | | | | | | | |
---------- ---------- ---------- ----------
-in
G|--------3--------------3--|--------------------------|
D|--------------------------|--------------------------|
A|--1--1-----1--1--1--1-----|--1--1--1-----1-----1--3--|
E|--------------------------|-----------1-----1--------|
| | | | | | | | | | | | | | | |
---------- ---------- ---------- ----------

G|--------5-----------------|--------------------------|
D|--------------------------|--------------------------|
A|--3--3--------3--3--3--3--|--3--3--3--3--3--1--2-----|
E|--------------------------|-----------------------3--|
| | | | | | | | | | | | | | |
---- ---------- ---------- ----------

G|--------------------------|--------------------------|
D|--------5--------5--5-3---|--3---------------3-------|
A|------------------------5-|-----5-4-3--1-3s5---------|
E|--3--3-----3--3-----------|-----------------------3--|
| | | | | | | | | | | | | | | | | |
---------- ---- ===-- ---===----- ===-- -
Twiggybass
Posts: 342
The Heroin Diaries Soundtrack
Sidsquishus
Posts: 1111
A Matter of Feeling by Duran Duran; Falling Down by same band is in que.

Backburner projects include Walk On The Wild Side by Lou Reed, Home and New Toy by Lene Lovich, Marquee Moon by Television, I Zimbra by Talking Heads, Tel Aviv by Duran Duran, and more Cranberries (but haven't decided which songs). Oh, and Walking After Midnight by Patsy Cline.

Then there's always the totally out-of-the-blue I-feel-like-learning-that-today song that the muse whispers in my ear.
linkinpark232
Posts: 1405
I'm Wrong But You Ain't Right by Kid Rock. Heavy ass song
DANNYBASSMAN93 [top submitter]
Posts: 510

Hey lon funny story i never finished my pearl jam tab so dont worry about it.

Night Ranger - Goodbye
                          Sing me Away
Nadia Ali - Rapture (Avicii New Generation remix)
September - Cry For You
Carlos Baute - Colgando en tus Manos
Robi Draco Rosa - Mas
                                      Esto es Vida.                                           
                                     Luchar Por Ella
Vampire Weekend - Cousins
Celeste Buckingham - Run Run Run
The Fray - Look After You
                     Vienna
Matchbox Twenty - Unwell
Shakira - Lo Hecho Esta Hecho
                Donde estas corazon?
Avicii - Silhouettes
Garbage - I Think Im Paranoid
Anna Nalick - Just Breathe
Duncan Sheik - Barely Breathing
Vulfpeck - Waiting For The Moment
Duran Duran - Like An Angel
Edward Maya - Desert Rain
Rusko - Everyday (Netsky Remix)
Dev - In The Dark
Maroon 5 - Makes Me Wonder
Passion Pit - Take A Walk, Sleepyhead, Dirty Little Secrets
The Killers - Human
Two Door Cinema - Something Good Can Work
Shout Out Louds - Normandie
Devotchka - The Winner Is
Faded Paper Figures - North by North
Girls Dead Monster - Alchemy
Nada Surf - Beautiful Beat
Nicky Romero - Toulouse 
Nobodyknows+ - Hero's Comeback
Tommyheavenly6 - Papermoon
Pretty Lights - Finally Moving
Foster The People - Houdini
Hellfire Machina - Good Love
La Caution - The A la Menthe 
The Temper Trap - Sweet Disposition
Young The Giant - My Body





I'm looking forward to the Human tab by The Killers, Danny. That's a really good song!
Cheekychuck
Posts: 243
OK, so I finished Zac Brown.( pending approval of course). Next on the list is Blake Shelton and Billy Currington
LoudLon [moderator]
Posts: 842
Quote:
Then there's always the totally out-of-the-blue I-feel-like-learning-that-today song that the muse whispers in my ear.

I get this often myself. Of my last ten tabs, only maybe three or four were either requests or on my “official” to-do list. The rest were songs that just popped into my head and I just had to tab them.

Reply to this thread