0-9 A B C D E F G H I J K L M N O P Q R S T U V W X Y Z

victor wooten bass solo

Hey everyone so im trying figure out a bit of this bass solo by victor wooten http://m.youtube.com/watch?v=43gIIyJWQII between 0:45 and 1:14
If someone can help me out that'll be great and you'll probably end up liking that bit too its very catchy and gets stuck in your head
it is very catchy i'll give it a go.. will post here soon
Here's half of it
Tabs:
3/4
~~
q q q Q q Q Q q q Q q q Q q q
|-16--17--18--|-19---16------|-17-----------|---------16--|-14----------|
|-------------|-(0)------17--|-(0)--19--16--|-17--19------|-----16------|
|-------------|--------------|--------------|-------------|---------17--|
|-------------|--------------|--------------|-------------|-------------|


~~
Q Q q Q q q Q q Q Q Q q Q q Q
|--19---16------|--17-----------|---------16--|--14----------|-19---16-------|
|-(16)------17--|-(16)--19--16--|-17--19------|-(17)---------|-(0)------17---|
|---------------|---------------|-------------|----------17--|---------------|
|---------------|---------------|-------------|--------------|---------------|


~~
Q q q Q q q Q q q Q q q Q q q
|-17-----------|---------16--|-14----------|-12--11--12--|-12--11--12---|
|-(0)--19--16--|-17--19------|-----16------|-14----------|-12-----------|
|--------------|-------------|---------17--|-------------|--------------|
|--------------|-------------|-------------|-------------|--------------|


Q Q Q Q Q Q
|--9--12--11--|-12--------|----|
|-10----------|-----------|----|
|-------------|-----------|----|
|-------------|-----------|----|
Thanks, I was thinking of trying to find out all of it but I wouldnt be able to play much more of it for a long time

Reply to this thread