0-9 A B C D E F G H I J K L M N O P Q R S T U V W X Y Z

UB40 tabs

Ola Mari7, I would like to work on Many Rivers To Cross. You will help me?

I have been away for work and a funeral for the last three weeks. (Got home yesterday evening.) I hope to do mostly things I want to do today, instead of things I must do.

I also need to work on a Lene Lovich song I started tabbing several months ago and haven't finished. And I still want to tab Free by Graffiti 6.
Mari7 - please check this for the intro to Many Rivers. Thanks.

Tabs:
Intro
G:|----------------|----------------|
D:|----------------|----------------|
A:|-------R--------|-------R--------|
E:|----------------|----------------|
+ + + + + + + +

G:|----------------|----------------|----------------|----------------|
D:|----------------|----------------|----------------|------------3---|
A:|4>--------------|----------------|------------2121|4>-----44----2--|
E:|-------11-1>---2|2>-----11-1>---2|2>------4>-2----|--------------42|
+ + + + + + + + + + + + + + + +

G:|----------------|----------------|----------------|----------------|
D:|----------------|----------------|----------------|----------------|
A:|4>--------------|----------------|------------2121|4>-----44>------|
E:|-------11-1>---2|2>-----11-1-----|2>------4>-2----|----------------|
+ + + + + + + + + + + + + + + +

Next come verses 1 & 2 which use this same riff, more or less. Cheers.
Verses 1 & 2:

Tabs:
Verse 1 & 2 x2
G:||----------------|----------------|----------------|----------------|
D:||----------------|----------------|----------------|----------------|
A:||4>--------------|----------------|------------2121|4>-----44>------|
E:||-------11-1>---2|2>-----11-1----2|2>------4>-2----|----------------|

G:|----------------|----------------|----------------|----------------||
D:|----------------|----------------|----------------|------------3---||
A:|4>--------------|----------------|------------2121|4>-----44----2--||
E:|-------11-1>---2|2>-----11-1>---2|2>------4>-2----|--------------42||
Mari7
Posts: 206
The tab of the music is perfect. You did it fast!

This is the version I was looking for. You are the best Sid, I never tire of repeating this
Thanks for checking the tab. I hope to tab the chorus today. I'll post it for checking when I have it. Cheers.
Many Rivers chorus. Please check. Cheers.

Tabs:
G:|----------------|----------------|----------------|----------------|
D:|4>-----44-4-443-|----------------|4>-----44-4>443-|----------------|
A:|---------------6|4>-----44-4>1242|---------------6|4>-----44-4>1242|
E:|----------------|----------------|----------------|----------------|
+ + + + + + + + + + + + + + + +

G:|----------------|----------------|----------------|----------------|
D:|4>-----44-4>443-|----------------|----------------|----------------|
A:|---------------6|4>-----12>------|----------------|----------------|
E:|----------------|------------4>--|2>------2-2-2-2-|4-4-4-4-4!--R---|
+ + + + + + + + + + + + + + + +
I've submitted my tab for Many Rivers To Cross. If anyone finds that it needs correcting, please let me know. Cheers.
Mari7
Posts: 206
Very Good Sid. Successful!
Thanks Mari7.

Reply to this thread