0-9 A B C D E F G H I J K L M N O P Q R S T U V W X Y Z

Someone should tab Free by Grafitti6

Sidsquishus
Posts: 879
11 months ago
Report this message
Quote
It is in the Request list. It has a great bass line that sounds like it came out of 60's Motown R&B. Like a Dunn or Jamerson bass line. I like it!
Sidsquishus
Posts: 879
If anyone cares to, please check. Thanks.

Tabs:
Intro
G:|----------------|
D:|----------------|
A:|------R---------|
E:|----------------|
+ + + +

Verse 1 (elevens)
G:|----------------|--------------------|--------------------|----------------|
D:|----------------|--------------------|--------------------|----------------|
A:|77-----7-7-----7|99-------9-9--------|99-------9-9-------9|77-----7-7-----7|
E:|--9-779---9-779-|--11-9911---11-9911-|--11-9911---11-9911-|--9-779---9-779-|
+ + + + + + + + + + + + + + + +

G:|----------------|--------------------|--------------------|
D:|----------------|--------------------|--------------------|
A:|77-----7-7-----7|99-------9-9--------|99-------9-9-------9|
E:|--9-779---9-779-|--11-9911---11-9911-|--11-9911---11-9911-|
+ + + + + + + + + + + +

G:|-----------------------------|
D:|-----------------------------|
A:|1212---------12-121414161614\| (twelves, fourteens, sixteens)
E:|----14-121214----------------|
+ + + +
Sidsquishus
Posts: 879
Here's a link to the song:

http://www.youtube.com/watch?v=1FObmcZnoKM
Sidsquishus
Posts: 879
After the verse, it's a chorus then a fill:

Tabs:
Chorus (elevens)
G:|----------------|--------------------|----------------|----------------|
D:|----------------|--------------------|77-----7-7-----7|----------------|
A:|77-----7-7-----7|99-------9-9-------9|--9-779---9-779-|77-----7-7---7-9|
E:|--9-779---9-779-|--11-9911---11-9911-|----------------|--9-779---7-9---|
+ + + + + + + + + + + + + + + +

(elevens and twelves)
G:|-----------------------------|--------------------|------------------|
D:|-----------------------------|--------------------|99--9---9-9--9----|
A:|1111---------11-11---------12|99-------9-9-------9|--9--911---9--911-|
E:|----12-111112-----12-111112--|--11-9911---11-9911-|------------------|
+ + + + + + + + + + + +

G:|----------------|----------------|
D:|77--7--7-7--7---|----------------|
A:|--7--79---7--77-|0>------>-------|
E:|----------------|----------------|
+ + + + + + + +

Fill (elevens)
G:|----------------|--------------------|--------------------|------------------|
D:|----------------|--------------------|--------------------|----------79111197|
A:|77-----7-7-----7|99-------9-9--------|99-------9-9-------9|77-----7-9--------|
E:|--9-779---9-779-|--11-9911---11-9911-|--11-9911---11-9911-|--9-779-----------|
+ + + + + + + + + + + + + + + +
Sidsquishus
Posts: 879
Mari7 - would you care to check this song? Anyone?

Reply to this thread