0-9 A B C D E F G H I J K L M N O P Q R S T U V W X Y Z

bass tab

chemik29
Posts: 2
Could you create bass tabs for this: https://www.youtube.com/watch?v=FG1c7NeofXU ??
Sidsquishus
Posts: 1499
nice! I like this. R&B flavored. LoudLon should tab this!
LoudLon [moderator]
Posts: 1489
I put it on my to-do list.
LoudLon [moderator]
Posts: 1489
Here's the intro:

Triplet 8th feel; ( 3 ) = triplet

Tabs:
G |-------------------------|-------------------------|-------------------------|-------------------------|
D |-------------------------|-------------------------|-------------------------|-----------------------5-|
A |-3---r-----3-r-----0-----|-3---r-----3-r-----0-----|-3---r-----3-r-----0-----|-3---r-----3-r---5/7-----|
E |-----------------------3-|-----------------------3-|-----------------------3-|-------------------------|
1 & & 2 & & 3 & & 4 & & 1 & & 2 & & 3 & & 4 & & 1 & & 2 & & 3 & & 4 & & 1 & & 2 & & 3 & & 4 & &

( 3 ) ( 3 )
G |-------------------------|-----------------2-2-3-5-|-------------------------|-------------------------|
D |-3---r-----3-r-----0-----|-3--r------3-r-----------|-------------------------|-------------------3-3-4-|
A |-----------------------3-|-------------------------|-3---r-----3-r---X-0-----|-3---r-----3-r---X-------|
E |-------------------------|-------------------------|-----------------------3-|-------------------------|
1 & & 2 & & 3 & & 4 & & 1 & & 2 & & 3 & & 4 & & 1 & & 2 & & 3 & & 4 & & 1 & & 2 & & 3 & & 4 & &

( 3 )( 3 )( 3 )
G |-------------------------|-------------------------|-------------------------|----------------------------|
D |-5---r-----5-r-----5---4-|-3---r-----3-----0-------|-------------------------|-----------------5-7--------|
A |-------------------------|-------------0-----3-----|-3---r-----3-r---X-0-----|--------------/7------5-3-0-|
E |-------------------------|-------------------------|-----------------------3-|-r---3--3-4-5---------------|
1 & & 2 & & 3 & & 4 & & 1 & & 2 & & 3 & & 4 & & 1 & & 2 & & 3 & & 4 & & 1 & & 2 & & 3 & & 4 & &

And it sounds to me like that's pretty much the main riff throughout the song, though he plays around with it, adding little fills here and there.
johnny [staff]
Posts: 899
i've sent chemik29 an email telling him you've tabbed it, hope your work doesn't go to waste!
johnny [staff]
Posts: 899
you can submit this as a tab, maybe someone else searching for this will find it easier that way
Sidsquishus
Posts: 1499
Thanks Lon! That was fast! Hopefully the OP will get back to you with a thank you. cheers
LoudLon [moderator]
Posts: 1489
I'll do a full tab in the future, just figured this should give the OP a jumping off point until then.
Thank for help! Its very nice song and I'll try play it in my free time

Reply to this thread