0-9 A B C D E F G H I J K L M N O P Q R S T U V W X Y Z

L7 and Iggy PoP

Chopps
Posts: 98
Can someone PLEASE help me with tabs for L7's Stuck here again and Boot n Rally Iggy PoP from True Blood. Thanx for any help
Sidsquishus
Posts: 1499
Second go round on Stuck Here Again. Simplified a bit from what I was doing before. Let me know if this helps. Cheers.

Tabs:
Intro
G:|--------|--------|--------|--------|--------|--------|--------|--------|
D:|--------|--------|--------|--------|--------|--------|--------|--------|
A:|---R----|---R----|---R----|---R----|---R----|---R----|77777777|55555555|
E:|--------|--------|--------|--------|--------|--------|--------|--------|
1 2 3 4 1 2 3 4 1 2 3 4 1 2 3 4 1 2 3 4 1 2 3 4 1 2 3 4 1 2 3 4

G:|--------|--------|--------|--------|--------|--------|--------|--------|
D:|--9>--7-|--------|--9>--7-|--------|--9>--7-|--------|--9>--7-|--------|
A:|77--55--|-------5|77--55--|-------5|77--55--|-------5|77--55--|-------3|
E:|-------3|5555-57-|-------3|5555-57-|-------3|5555-57-|-------3|5555-35-|
1 2 3 4 1 2 3 4 1 2 3 4 1 2 3 4 1 2 3 4 1 2 3 4 1 2 3 4 1 2 3 4

Verse
G:|--------|--------|--------|--------|--------|--------|--------|--------|
D:|--9----5|--------|--9----5|--------|--9----5|--------|--9----5|--------|
A:|77-7557-|-------3|77-7557-|------35|77-7557-|-------3|77-7557-|------35|
E:|--------|5555-35-|--------|5555-5--|--------|5555-35-|--------|5555-5--|
1 2 3 4 1 2 3 4 1 2 3 4 1 2 3 4 1 2 3 4 1 2 3 4 1 2 3 4 1 2 3 4

Chorus
G:|--------|--------|--------|--------|--------|--------|--------|--------|
D:|--------|--------|--------|--------|--------|--------|--------|--------|
A:|777-555-|--------|777-555-|-----7--|777-555-|-----7--|777-555-|--------|
E:|-------3|5555-353|-------3|5555--85|-------3|5555--85|-------3|5555-55-|
1 2 3 4 1 2 3 4 1 2 3 4 1 2 3 4 1 2 3 4 1 2 3 4 1 2 3 4 1 2 3 4

Fill
G:|--------|--------|--------|--------|
D:|-------5|7777-775|-------5|7777-775|
A:|7-7-555-|--------|7-7-555-|--------|
E:|--------|--------|--------|--------|
1 2 3 4 1 2 3 4 1 2 3 4 1 2 3 4

Verse Reprise
G:|--------|--------|--------|--------|--------|--------|--------|--------|
D:|--9----5|--------|--9----5|--------|--9----5|--------|--9----5|--------|
A:|77-7557-|-------3|77-7557-|------35|77-7557-|-------3|77-7557-|--------|
E:|--------|5555-35-|--------|5555-5--|--------|5555-35-|--------|55555555|
1 2 3 4 1 2 3 4 1 2 3 4 1 2 3 4 1 2 3 4 1 2 3 4 1 2 3 4 1 2 3 4

Chorus
G:|--------|--------|--------|--------|--------|--------|--------|--------|
D:|--------|--------|--------|--------|--------|--------|--------|--------|
A:|777-555-|--------|777-555-|-----7--|777-555-|-----7--|777-555-|--------|
E:|-------3|5555-353|-------3|5555--85|-------3|5555--85|-------3|5555-55-|
1 2 3 4 1 2 3 4 1 2 3 4 1 2 3 4 1 2 3 4 1 2 3 4 1 2 3 4 1 2 3 4

Intro Reprise
G:|--------|--------|--------|--------|--------|--------|--------|--------|
D:|--------|--------|--------|--------|--------|--------|--------|--------|
A:|7>------|5>------|7>------|5>------|7>------|5>------|7>----76|5>------|
E:|--------|--------|--------|--------|--------|--------|--------|--------|

Guitar Solo x2
G:||--------|--------|--------|--------|--------|--------|--------|--------||
D:||--------|--------|--------|--------|--------|--------|--------|--------||
A:||777-555-|--------|777-555-|-----7--|777-555-|-----7--|777-555-|--------||
E:||-------3|5555-357|-------3|5555--85|-------3|5555--85|-------3|5555-357||
Sidsquishus
Posts: 1499
Here's the rest of it. Corrections and comments welcome, excepting trolls.

Tabs:
Fill
G:|--------|--------|--------|--------|
D:|-------5|7777-775|-------5|7777-775|
A:|7-7-555-|--------|7-7-555-|--------|
E:|--------|--------|--------|--------|
1 2 3 4 1 2 3 4 1 2 3 4 1 2 3 4

Verse Reprise
G:|--------|--------|--------|--------|--------|--------|--------|--------|
D:|--9----5|--------|--9----5|--------|--9----5|--------|--9----5|--------|
A:|77-7557-|-------3|77-7557-|------35|77-7557-|-------3|77-7557-|--------|
E:|--------|5555-35-|--------|5555-5--|--------|5555-35-|--------|55555555|
1 2 3 4 1 2 3 4 1 2 3 4 1 2 3 4 1 2 3 4 1 2 3 4 1 2 3 4 1 2 3 4

Chorus Reprise
G:|--------|--------|--------|--------|--------|--------|--------|--------|
D:|--------|--------|--------|--------|--------|--------|--------|--------|
A:|777-555-|--------|777-555-|-----7--|777-555-|-----7--|777-555-|--------|
E:|-------3|5555-353|-------3|5555--85|-------3|5555--85|-------3|55555555|
1 2 3 4 1 2 3 4 1 2 3 4 1 2 3 4 1 2 3 4 1 2 3 4 1 2 3 4 1 2 3 4

Chorus
G:|--------|--------|--------|--------|--------|--------|--------|--------|
D:|--------|--------|--------|--------|--------|--------|--------|--------|
A:|777-555-|--------|777-555-|-----7--|777-555-|-----7--|777-555-|--------|
E:|-------3|5555-353|-------3|5555--85|-------3|5555--85|-------3|5555-55-|
1 2 3 4 1 2 3 4 1 2 3 4 1 2 3 4 1 2 3 4 1 2 3 4 1 2 3 4 1 2 3 4

Outro (tempo slows)
G:|--------|--------|--------|--------|--------|--------|--------|--------|
D:|--------|--------|--------|--------|--------|--------|--------|--------|
A:|7>-----7|5>----56|7>------|5>------|77777777|55555555|77777777|55555-56|
E:|--------|--------|--------|--------|--------|--------|--------|-----7--|
1 2 3 4 1 2 3 4 1 2 3 4 1 2 3 4 1 2 3 4 1 2 3 4 1 2 3 4 1 2 3 4

G:|--------|--------|--------|
D:|--------|--------|--------|
A:|7-7-7-7>|--------|7!------|
E:|--------|--------|--------|
1 2 3 4 1 2 3 4 1 2 3 4
Oh Sid that's shit 1 star, 1 star, 1 star









Just kidding, I love you
Sidsquishus
Posts: 1499
Bloody trolls!







Just kidding.

It's a love fest!
Chopps
Posts: 98
Im on it and all over it Thanx
Love you too, Chopps
johnny [staff]
Posts: 899
are you gonna submit that, Sid?
Sidsquishus
Posts: 1499
Once I hear back from Chopps (and anyone else) that it works for them, then I'll submit it. It might need more work to get it right - hope not, but I'll wait for feedback.
Chopps
Posts: 98
Sorry Sidquishus. Sounds perfect to me. I have played it to their recorded track and everything sounds right. Again thanx. Maybe some day I'll be able to do that for someone.\m/
Sidsquishus
Posts: 1499
thanks for the feedback. cheers!

Reply to this thread