0-9 A B C D E F G H I J K L M N O P Q R S T U V W X Y Z

Daisy Chainsaw — Love Your Money bass tabs

BAND: Daisy Chainsaw
SONG: Love Your Money
Album: Eleventeen (1992)

This tab isn't 100% perfect

Tuning E.A.D.G

Main Riff/Chorus

G:———————————————————|
D:———————————————————|
A:———————————————————|
E:—0—2—4—0—5—6—7—7—7—|

Right after the Main Riff

G:——————————————————|
D:——————————————————|
A:——————————————————|
E:—7—6—5—0—0—4—3—2——|

At the end

G:———|
D:———|
A:———|
E:—0—|

Tablature player for this song:

Comments

It's close. The main riff should be…
Tabs:
G|--------------------------------------|
D|--------------------------------------|
A|--------------------------------------|
E|-0-3-4--0-05-6-7--7--7----------------|

The little walk-down right before the chorus:

Tabs:
G|--------------------------------------|
D|--------------------------------------|
A|--------------------------------------|
E|-12-11-10--0--09-8-7------------------|

The chorus:
Tabs:
G|----------------------|
D|----------------------|
A|-7-5-7----------------|
E|----------7--7--75-57-|

The bridge:
Tabs:
G|--------------------------|
D|--------------------------|
A|--------------------------|
E|-7-5-7----7--7--75--57--5-|

This is all from memory but I'm pretty sure it's right. Also, the whole song is in triplet 8th feel.

Post a comment