0-9 A B C D E F G H I J K L M N O P Q R S T U V W X Y Z

Twiggybass -- Just a Matter of Time tab

LoudLon [moderator]
Posts: 1229
Hope this does the trick, bro.
Tabs:
Eb tuning (1/2 step down)

s = 16th note
* = staccato
h = hammer on

INTRO:

rest s s s
Gb |-----------------|-------------------|
Db |-----------------|-------------------|
Ab |-----------------|-------------------|
Eb |-----------------|---------00*-2*2h4-|
1 & 2 & 3 & 4 & 1 & 2 & 3 & 4 &


SECTION 1 (repeat 1st staff x2)

Gb |-----------------|-----------------|-----------------|-----------------|
Db |-----------------|-----------------|-----------------|-----------------|
Ab |-2--2--2-2-------|-----------------|-2--2--2-2-------|-2--2--2-2-------|
Eb |-----------------|-0--0--0-0--2----|-----------------|-----------------|
1 & 2 & 3 & 4 & 1 & 2 & 3 & 4 & 1 & 2 & 3 & 4 & 1 & 2 & 3 & 4 &

Gb |-----------------|-----------------|-----------------|-----------------|
Db |-----------------|-----------------|-----------------|-----------------|
Ab |-----------------|-----------------|-----------------|-----------------|
Eb |-0--0--0-0-------|-0--0--0-0--2----|-4--4--4-4-------|-4--4--4-4---2---|
1 & 2 & 3 & 4 & 1 & 2 & 3 & 4 & 1 & 2 & 3 & 4 & 1 & 2 & 3 & 4 &

(x2)
Gb |-----------------|-----------------|-----------------|-----------------|-----------------|
Db |-----------------|-----------------|-----------------|-----------------|-----------------|
Ab |-----------------|-----------------|-2--2--2-2-------|-----------------|-2--2--2-2-------|
Eb |-0--0--0-0-------|-2--2--2-2-------|-----------------|-0--0--0-0--2----|-----------------|
1 & 2 & 3 & 4 & 1 & 2 & 3 & 4 & 1 & 2 & 3 & 4 & 1 & 2 & 3 & 4 & 1 & 2 & 3 & 4 &


VERSE 1: repeat section one in its entirety x2


SECTION 2 ("All alone in the still of the night")

Gb |-----------------|-----------------|-----------------|-----------------|
Db |-----------------|-----------------|-----------------|-----------------|
Ab |-----------------|-----------------|-2--2--2-2-------|-2--2--2-2-------|
Eb |-0--0--0-0-------|-0--0--0-0-------|-----------------|-------------2---|
1 & 2 & 3 & 4 & 1 & 2 & 3 & 4 & 1 & 2 & 3 & 4 & 1 & 2 & 3 & 4 &

s s
Gb |-----------------|-----------------|-----------------|------------------|
Db |-----------------|-----------------|-----------------|------------------|
Ab |-----------------|-----------------|-----------------|------------------|
Eb |-0--0--0-0-------|-0--0--0-0-------|-2--2--2-2-------|-2--2----2---2-0h2|
1 & 2 & 3 & 4 & 1 & 2 & 3 & 4 & 1 & 2 & 3 & 4 & 1 & 2 & 3 & 4 &

SAX SOLO:

Gb |-----------------|-----------------|-----------------|-----------------|
Db |-----------------|-----------------|-----------------|-----------------|
Ab |-----------------|-----------------|-----------------|-----------------|
Eb |-4--4--4-4-------|-4--4--4-4-------|-0--0--0-0-------|-0--0--0-0-------|
1 & 2 & 3 & 4 & 1 & 2 & 3 & 4 & 1 & 2 & 3 & 4 & 1 & 2 & 3 & 4 &

Gb |-----------------|-----------------|-----------------|-----------------|
Db |-----------------|-----------------|-----------------|-----------------|
Ab |-4--4--4-4-------|-4--4--4-4-------|-----------------|-----------------|
Eb |-----------------|-----------------|-2--2--2-2-------|-2--2--2-2-------|
1 & 2 & 3 & 4 & 1 & 2 & 3 & 4 & 1 & 2 & 3 & 4 & 1 & 2 & 3 & 4 &


SECTION 3 (basically, Section 1 but with alterations):

(repeat 1st staff x2)

Gb |-----------------|-----------------|-----------------|-----------------|
Db |-----------------|-----------------|-----------------|-----------------|
Ab |-2--2--2-2-------|-----------------|-2--2--2-2-------|-2--2--2-2-------|
Eb |-----------------|-0--0--0-0--2----|-----------------|-----------------|
1 & 2 & 3 & 4 & 1 & 2 & 3 & 4 & 1 & 2 & 3 & 4 & 1 & 2 & 3 & 4 &

Gb |-----------------|-----------------|-----------------|-----------------|
Db |-----------------|-----------------|-----------------|-----------------|
Ab |-----------------|-----------------|-----------------|-----------------|
Eb |-0--0--0-0-------|-0--0--0-0--2----|-4--4--4-4-------|-4--4--4-4---2---|
1 & 2 & 3 & 4 & 1 & 2 & 3 & 4 & 1 & 2 & 3 & 4 & 1 & 2 & 3 & 4 &


Gb |-----------------|-----------------|-----------------|
Db |-----------------|-----------------|-----------------|
Ab |-----------------|-----------------|-2--2--2-2-------|
Eb |-0--0--0-0-------|-2--2--2-2-------|-----------------|
1 & 2 & 3 & 4 & 1 & 2 & 3 & 4 & 1 & 2 & 3 & 4 &

( x5 )
Gb |-----------------|-----------------|-----------------|
Db |-----------------|-----------------|-----------------|
Ab |-2--2--2-2-------|-----------------|-2---------------|
Eb |-----------------|-0--0--0-0-------|-----------------|
1 & 2 & 3 & 4 & 1 & 2 & 3 & 4 & 1 & 2 & 3 & 4 &
let this last note ring to fade out
thank you soooooo much Loudlon ))
its perfect thank you once again. i never dreamed this song would see the light of day as a time because to me it is one of the most beautiful pices of music i ever heard
LoudLon [moderator]
Posts: 1229
De nada, el bajo del Twiggito.
hahahah gracis
me amigo
mayhem
Posts: 285
Again Lon to the rescue!
Lon is the man!
Yeah he is dudes. This is one ofthe most beautiful pieces of music EVER and if it wasn't for Loudlon this song never would of seen the light of day
Note pattern and sound is really familiar, but I can remember who it is by for the life of me.
John Caffery and the Beaver Brown Band
This song was made for
Eddie & The Cruiser II: Eddie Lives

Reply to this thread