0-9 A B C D E F G H I J K L M N O P Q R S T U V W X Y Z

George Michael - Heal the Pain

Sidsquishus
Posts: 1108
Gerr - how is this sounding to you? Anything that seems to be incorrect?
Sidsquishus
Posts: 1108
Loudlon - agreed! This tabbing is a labor of love, though with some songs, it just plain feels like work!
Hugorj
Posts: 334
I'll check it
Sidsquishus
Posts: 1108
I've listened to the verse again and know that I am missing some of the transition notes, especially in measures three and four. I'll be working on that today - along with Drugs by The Talking Heads.
Hugorj
Posts: 334
I played it. The intro sounds very good (can be used in chorus too).But the part of the verse was a little confusing to me
Sidsquishus
Posts: 1108
Thanks for checking, Hugorj.
Sidsquishus
Posts: 1108
I've gone through the verse again. Here's my second try at it - pretty sure this is correct.

Tabs:
Verse
G:|--------|--------|--------|--------|--------|--------|--------|--------|
D:|7>----77|-------4|5>----57|------45|7>-----7|-------4|5>----57|--------|
A:|--------|7>----7-|--------|5>------|--------|7>----7-|--------|5>------|
E:|--------|--------|--------|--------|--------|--------|--------|--------|
1 2 3 4 1 2 3 4 1 2 3 4 1 2 3 4 1 2 3 4 1 2 3 4 1 2 3 4 1 2 3 4

G:|--------|--------|--------|--------|--------|--------|--------|--------|
D:|5>-5>-45|7>-7>-57|9>-9>--7|9>-9>097|5>-5>-45|7>-7>-57|9>-9>-7-|9>-9>7>7|
A:|--------|--------|------9-|--------|--------|--------|-----7-9|--------|
E:|--------|--------|--------|--------|--------|--------|--------|--------|
1 2 3 4 1 2 3 4 1 2 3 4 1 2 3 4 1 2 3 4 1 2 3 4 1 2 3 4 1 2 3 4
Sidsquishus
Posts: 1108
After the verse, there's this chorus:

Tabs:
Chorus
G:|--------|--------|--------|-----7--|--------|--------|--------|--------|
D:|-------7|--------|5>55---5|------75|------7-|-------4|5>---557|--------|
A:|5>----5-|7>-77-77|--------|5>-5----|5>-5-5-5|7>----7-|--------|5>-----5|
E:|--------|--------|--------|--------|--------|--------|--------|--------|
1 2 3 4 1 2 3 4 1 2 3 4 1 2 3 4 1 2 3 4 1 2 3 4 1 2 3 4 1 2 3 4

Then it's into verse 2, the first half of which can be played the same as the first half of verse 1. The second half differs from verse 1 however.
Gerr
Posts: 186
For me, it's good
Sidsquishus
Posts: 1108
Thanks, Gerr. I have the second verse and the chorus that follows done. Now there is another chorus, then a new, different version of a verse.

Tabs:
Verse 2
G:|--------|--------|--------|--------|--------|--------|--------|--------|
D:|7>----77|-------4|5>----57|------45|7>-----7|-------4|5>----57|--------|
A:|--------|7>----7-|--------|5>------|--------|7>----7-|--------|5>------|
E:|--------|--------|--------|--------|--------|--------|--------|--------|
1 2 3 4 1 2 3 4 1 2 3 4 1 2 3 4 1 2 3 4 1 2 3 4 1 2 3 4 1 2 3 4

G:|--------|--------|-----------|---------|--------|--------|--------|--------|
D:|5>----45|7>------|9>---------|---------|5>------|7>-77777|9>-9>---|9>---7>5|
A:|--------|--------|-----7/1214|14>---975|-------5|--------|--------|--------|
E:|--------|--------|-----------|---------|--------|--------|--------|--------|
1 2 3 4 1 2 3 4 1 2 3 4 1 2 3 4 1 2 3 4 1 2 3 4 1 2 3 4 1 2 3 4

Chorus 2
G:|--------|--------|--------|--------|--------|--------|--------|--------|
D:|------7-|------97|5>--5>7>|------75|------7-|---9>--4|5>-5>-57|------97|
A:|5>-----5|7>-77---|--------|5>------|5>-----5|7>----7-|--------|5>------|
E:|--------|--------|--------|--------|--------|--------|--------|--------|
1 2 3 4 1 2 3 4 1 2 3 4 1 2 3 4 1 2 3 4 1 2 3 4 1 2 3 4 1 2 3 4

Reply to this thread