0-9 A B C D E F G H I J K L M N O P Q R S T U V W X Y Z

rudi big time

punk bass man
Posts: 60
hey I cant find any tabs for this anywhere I was just wondering if anyone could please tab it for me cheers http://www.youtube.com/watch?v=huYMaysP9LU
I'm working on it, punk bass man. With some luck, I should have a draft (first go, probably with mistakes) of intro verse and chorus soon. I'll post it here so you can check it. Cheers.

And this doesn't someone else can't work on it! Have a go if you have time!
see what you think of this, punk bass man.

Tabs:
Intro
G:|--------|--------|--------|--------|--------|--------|--------|--------|
D:|--------|--------|--------|--------|--------|--------|--------|--------|
A:|55555555|55555555|55555555|55555555|55555555|55555555|55555555|55555555|
E:|--------|--------|--------|--------|--------|--------|--------|--------|
+ + + + + + + + + + + + + + + + + + + + + + + + + + + + + + + +

G:|--------|--------|--------|--------|--------|--------|--------|--------|
D:|--------|--------|--------|--------|----7-7-|5-5-----|----7-7-|5-5-----|
A:|5>------|>-------|---R----|--R----4|5-5-----|----5--4|5-5-----|----5--4|
E:|--------|--------|--------|-----57-|--------|-----57-|--------|-----57-|
+ + + + + + + + + + + + + + + + + + + + + + + + + + + + + + + +

G:|--------|--------|--------|--------|
D:|----7-7-|5-5-----|----7-7-|5-5-----|
A:|5-5-----|----5--4|5-5-----|----5--4|
E:|--------|-----57-|--------|-----57-|
+ + + + + + + + + + + + + + + +

Verse x6
G:||--------|--------||--------|--------|--------|--------|33445566|
D:||----7-7-|5-5-----||----7-7-|5-5-5-5-|5-5-5-5-|7-7-7-7-|--------|
A:||5-5-----|----5--4||5-5-----|--------|--------|--------|--------|
E:||--------|-----57-||--------|--------|--------|--------|--------|
+ + + + + + + + + + + + + + + + + + + + + + + + + + + +

Chorus x4
G:||7-7--79-|--------|--------|--445566||
D:||----9---|7-7-7-7-|5-5---5-|7-------||
A:||--------|--------|----57--|--------||
E:||--------|--------|--------|--------||
+ + + + + + + + + + + + + + + +

Fill x4
G:||--------|--------||
D:||----7-7-|5-5-----||
A:||5-5-----|----5--4||
E:||--------|-----57-||

Verse x6
G:||--------|--------||--------|--------|--------|--------|33445566|
D:||----7-7-|5-5-----||----7-7-|5-5-5-5-|5-5-5-5-|7-7-7-7-|--------|
A:||5-5-----|----5--4||5-5-----|--------|--------|--------|--------|
E:||--------|-----57-||--------|--------|--------|--------|--------|

Chorus x4
G:||7-7--79-|--------|--------|--445566||
D:||----9---|7-7-7-7-|5-5---5-|7-------||
A:||--------|--------|----57--|--------||
E:||--------|--------|--------|--------||

Intro Reprise
G:|--------|--------|--------|--------|--------|--------|--------|--------|
D:|--------|--------|--------|--------|--------|--------|--------|--------|
A:|55555555|55555555|55555555|55555555|55555555|55555555|55555555|55555555|
E:|--------|--------|--------|--------|--------|--------|--------|--------|

G:|--------|--------|--------|--------|
D:|--------|--------|--------|--------|
A:|5>------|>-------|5>------|>------4|
E:|--------|--------|--------|-----57-|

Outro
G:||--------|--765---||
D:||----5-5-|7----75-|| repeat to
A:||5-5-----|-------7|| fade
E:||--------|--------||
Hi Marceline,
The song is Big Time by a band from Northern Ireland called Rudi. It was released as a single way back in 1978.
jeez thanks man wow cool thanks you
let me know if it needs any fixes. cheers.
Cool thanks man jeez thanks you must be a really good player tabbing that .jeez thanks
No, actually, I'm a pretty shitty player with no reach…lots of movement up and down the frets when I play.
johnny [staff]
Posts: 641
you have a great ear!

Reply to this thread