0-9 A B C D E F G H I J K L M N O P Q R S T U V W X Y Z

Requested tabs: Cattle Call, Shotgun

So instead of it being several weeks it has been a couple of months, but I finally have a draft tab of Shotgun, bass line by the great James Jamerson. My apologies to the person who requested this tab for it taking so long. (I got involved in a bunch of Duran Duran songs!)

What I hear and have tabbed is a lot less varied than what the (first page of) sheet music shows as the bass line. (see it here: http://www.musicnotes.com/sheetmusic/mtdFPE.asp?ppn=MN0074864&mnuid%3DZMF9SXHU0SDM46BRGDWY07LSN2FBSCC810X2TCC8)

here's the intro
Tabs:
Intro
G:|----------------||----------------||
D:|------------4-5-||6>--6---4-5---5-||
A:|66-66-66--6-----||------6-----6---||
E:|----------------||----------------||
+ + + + + + + +

Next comes a chorus which I have as the same as the repeated measure in the intro. Then the verse riff which I have as a very slight variation on the intro/chorus riff:

Tabs:
Verse x2
G:||----------------|----------------|----------------|----------------||
D:||6>--6---4-5---4-|6>--6---4-5---4-|6>--6---4-5---4-|6>--6---4-5---4-||
A:||------6-----6---|------6-----6---|------6-----6---|------6-----6---||
E:||----------------|----------------|----------------|----------------||

Any checks/corrections are welcome.
Cheers.

Reply to this thread