0-9 A B C D E F G H I J K L M N O P Q R S T U V W X Y Z

Duran Duran Bass Tabs

Sidsquishus
Posts: 1041
Some Beautiful Colours
please check
thanks

Tabs:
Verse 1
G:|----------------|----------------|----------------|----------------|
D:|----------------|----------------|----------------|----------------|
A:|------0>--0-0-0-|7>-77-----------|------0>--0-0-0-|7>-77-----------|
E:|2>-22-----------|------7>--7---7-|2>-22-----------|------7>--7---7-|
1 & 2 & 3 & 4 & 1 & 2 & 3 & 4 & 1 & 2 & 3 & 4 & 1 & 2 & 3 & 4 &

G:|----------------|----------------|----------------|----------------|
D:|----------------|----------------|----------------|----------------|
A:|------0>--0-0-0-|7>-77-----------|------0>--0-0-0-|7>-77-----------|
E:|2>-22-----------|------7>--7---7\|2>-22-----------|------7>--7/9\7-|
1 & 2 & 3 & 4 & 1 & 2 & 3 & 4 & 1 & 2 & 3 & 4 & 1 & 2 & 3 & 4 &

Verse 2
G:|----------------|----------------|----------------|----------------|
D:|----------------|----------------|----------------|----------------|
A:|------0>--0-0-0-|7>-77-----------|------0>--0-0-0-|7>-77-----------|
E:|2>-22-----------|------7>--7---7-|2>-22-----------|------7>--7-7-5-|
1 & 2 & 3 & 4 & 1 & 2 & 3 & 4 & 1 & 2 & 3 & 4 & 1 & 2 & 3 & 4 &

G:|----------------|----------------|----------------|----------------|
D:|----------------|----------------|----------------|----------------|
A:|------0>--0-0-0-|7>-77-----------|------0>--0-0-0-|7>-77-----------|
E:|2>-22-----------|------7>--7---7\|2>-22-----------|------7>--7-7\--|
1 & 2 & 3 & 4 & 1 & 2 & 3 & 4 & 1 & 2 & 3 & 4 & 1 & 2 & 3 & 4 &

Chorus
G:|----------------|----------------|----------------|----------------|
D:|----------------|9>-99-9>--9-9-9-|--------------6-|7>-77-6-7-6-7-6-|
A:|7>-77-7>--7-7-7-|----------------|9>-99-9>--9-9---|----------------|
E:|----------------|----------------|----------------|----------------|
1 & 2 & 3 & 4 & 1 & 2 & 3 & 4 & 1 & 2 & 3 & 4 & 1 & 2 & 3 & 4 &

G:|----------------|----------------|----------------|----------------|
D:|----------------|9>-99-9>--9-9-9-|--------------6-|7>-77-6-7-6-7-6-|
A:|7>-77-7>--7-7-7-|----------------|9>-99-9>--7-9---|----------------|
E:|----------------|----------------|----------------|----------------|
1 & 2 & 3 & 4 & 1 & 2 & 3 & 4 & 1 & 2 & 3 & 4 & 1 & 2 & 3 & 4 &

G:|----------------|----------------|----------------|----------------|
D:|----------------|9>-99-9>--9-9-9-|----------------|----------------|
A:|7>-77-7>--7-7-7-|----------------|9>-99-9>--9-7-7-|5>----5>--5-5-5-|
E:|----------------|----------------|----------------|----------------|
1 & 2 & 3 & 4 & 1 & 2 & 3 & 4 & 1 & 2 & 3 & 4 & 1 & 2 & 3 & 4 &

G:|----------------|----------------|----------------|
D:|----------------|----------------|----------------|
A:|5>----5>--5-5-\-|2>----2>--------|2>----2>--------|
E:|----------------|----------------|----------------|
1 & 2 & 3 & 4 & 1 & 2 & 3 & 4 & 1 & 2 & 3 & 4 &

Fill
G:|----------------|----------------|----------------|----------------|
D:|----------------|----------------|----------------|----------------|
A:|------0>--0-0-0-|------2>--2-2-2-|------0>--0-0-0-|------2>--2-2-2-|
E:|2>-22-----------|0>-00-----------|2>-22-----------|0>-00-----------|
1 & 2 & 3 & 4 & 1 & 2 & 3 & 4 & 1 & 2 & 3 & 4 & 1 & 2 & 3 & 4 &

G:|----------------|----------------|----------------|----------------|
D:|----------------|----------------|----------------|----------------|
A:|------0>--0-0-0-|------2>--2-2-2-|------0>--0-0-0-|------2!--R-----|
E:|2>-22-----------|0>-00-----------|2>-22-----------|0>-00-----------|
1 & 2 & 3 & 4 & 1 & 2 & 3 & 4 & 1 & 2 & 3 & 4 & 1 & 2 & 3 & 4 &
Mari7
Posts: 190
I liked Sid !! Great
Ezzo
Posts: 73
And works with Beautiful Colours?
Sidsquishus
Posts: 1041
Hi Ezzo, both Hugorj and I are working on Beautiful Colours. I have a little time each week for tabbing, but this is what I have for Colours at present. This gets to the keyboard solo. Let me know if it sounds right to you. Cheers.

Tabs:
Verse 1
G:|----------------|----------------|----------------|----------------|
D:|----------------|----------------|----------------|----------------|
A:|------0>--0-0-0-|7>-77-----------|------0>--0-0-0-|7>-77-----------|
E:|2>-22-----------|------7>--7---7-|2>-22-----------|------7>--7---7-|
1 & 2 & 3 & 4 & 1 & 2 & 3 & 4 & 1 & 2 & 3 & 4 & 1 & 2 & 3 & 4 &

G:|----------------|----------------|----------------|----------------|
D:|----------------|----------------|----------------|----------------|
A:|------0>--0-0-0-|7>-77-----------|------0>--0-0-0-|7>-77-----------|
E:|2>-22-----------|------7>--7---7\|2>-22-----------|------7>--7/9\7-|
1 & 2 & 3 & 4 & 1 & 2 & 3 & 4 & 1 & 2 & 3 & 4 & 1 & 2 & 3 & 4 &

Verse 2
G:|----------------|----------------|----------------|----------------|
D:|----------------|----------------|----------------|----------------|
A:|------0>--0-0-0-|7>-77-----------|------0>--0-0-0-|7>-77-----------|
E:|2>-22-----------|------7>--7---7-|2>-22-----------|------7>--7-7-5-|
1 & 2 & 3 & 4 & 1 & 2 & 3 & 4 & 1 & 2 & 3 & 4 & 1 & 2 & 3 & 4 &

G:|----------------|----------------|----------------|----------------|
D:|----------------|----------------|----------------|----------------|
A:|------0>--0-0-0-|7>-77-----------|------0>--0-0-0-|7>-77-----------|
E:|2>-22-----------|------7>--7---7\|2>-22-----------|------7>--7-7\--|
1 & 2 & 3 & 4 & 1 & 2 & 3 & 4 & 1 & 2 & 3 & 4 & 1 & 2 & 3 & 4 &

Chorus
G:|----------------|----------------|----------------|----------------|
D:|----------------|9>-99-9>--9-9-9-|--------------6-|7>-77-6-7-6-7-6-|
A:|7>-77-7>--7-7-7-|----------------|9>-99-9>--9-9---|----------------|
E:|----------------|----------------|----------------|----------------|
1 & 2 & 3 & 4 & 1 & 2 & 3 & 4 & 1 & 2 & 3 & 4 & 1 & 2 & 3 & 4 &

G:|----------------|----------------|----------------|----------------|
D:|----------------|9>-99-9>--9-9-9-|--------------6-|7>-77-7>--6-7-6-|
A:|7>-77-7>--7-7-7-|----------------|9>-99-9>--7-9---|----------------|
E:|----------------|----------------|----------------|----------------|
1 & 2 & 3 & 4 & 1 & 2 & 3 & 4 & 1 & 2 & 3 & 4 & 1 & 2 & 3 & 4 &

G:|----------------|----------------|----------------|----------------|
D:|----------------|9>-99-9>--9-9-9-|--------------6-|7>-77-6-7-6-7-6-|
A:|7>-77-7>--7-7-7-|----------------|9>-99-9>--9-9---|----------------|
E:|----------------|----------------|----------------|----------------|
1 & 2 & 3 & 4 & 1 & 2 & 3 & 4 & 1 & 2 & 3 & 4 & 1 & 2 & 3 & 4 &

G:|----------------|----------------|----------------|----------------|
D:|----------------|9>-99-9>--9-9-9-|----------------|----------------|
A:|7>-77-7>--7-7-7-|----------------|9>-99-9>--9-7-7-|5>----5>--5-5-5-|
E:|----------------|----------------|----------------|----------------|
1 & 2 & 3 & 4 & 1 & 2 & 3 & 4 & 1 & 2 & 3 & 4 & 1 & 2 & 3 & 4 &

G:|----------------|----------------|----------------|
D:|----------------|----------------|----------------|
A:|5>----5>--5-5-\-|2>----2>--------|2>----2>--------|
E:|----------------|----------------|----------------|
1 & 2 & 3 & 4 & 1 & 2 & 3 & 4 & 1 & 2 & 3 & 4 &

Fill
G:|----------------|----------------|----------------|----------------|
D:|----------------|----------------|----------------|----------------|
A:|------0>--0-0-0-|------2>--2-2-2-|------0>--0-0-0-|------2!--R-----|
E:|2>-22-----------|0>-00-----------|2>-22-----------|0>-00-----------|
1 & 2 & 3 & 4 & 1 & 2 & 3 & 4 & 1 & 2 & 3 & 4 & 1 & 2 & 3 & 4 &

Verse 3
G:|----------------|-----------------|----------------|----------------|
D:|----------------|-----------------|----------------|----------------|
A:|------0>--0-0-0-|5h75h7-----------|------0>--0-0-0-|7>-77-----------|
E:|2>-22-----------|-------7>--7---7-|2>-22-----------|------7>--7---7-|
1 & 2 & 3 & 4 & 1 & 2 & 3 & 4 & 1 & 2 & 3 & 4 & 1 & 2 & 3 & 4 &

G:|----------------|-----------------|----------------|----------------|
D:|----------------|-----------------|----------------|------9>--9-9-9-|
A:|------0>--0-0-0-|5h75h7-----------|------0>--0-0-0-|7>-77-----------|
E:|2>-22-----------|-------7>--7---7-|2>-22-----------|----------------|
1 & 2 & 3 & 4 & 1 & 2 & 3 & 4 & 1 & 2 & 3 & 4 & 1 & 2 & 3 & 4 &

Fill II (2/4)
G:|--------|--------|--------|
D:|7-7-7-7-|4-4-4-4-|--------|
A:|--------|--------|5-5-5-5-|
E:|--------|--------|--------|
1 & 2 & 1 & 2 & 1 & 2 &

Chorus Reprise (4/4)
G:|----------------|----------------|----------------|----------------|
D:|----------------|9>-99-9>--9-9-9-|--------------6-|7>-77-6-7-6-7-6-|
A:|7>-77-7>--7-7-7-|----------------|9>-99-9>--9-9---|----------------|
E:|----------------|----------------|----------------|----------------|
1 & 2 & 3 & 4 & 1 & 2 & 3 & 4 & 1 & 2 & 3 & 4 & 1 & 2 & 3 & 4 &

G:|----------------|----------------|----------------|----------------|
D:|----------------|9>-99-9>--9-9-9-|--------------6-|7>-77-7>--6-7-6-|
A:|7>-77-7>--7-7-7-|----------------|9>-99-9>--7-9---|----------------|
E:|----------------|----------------|----------------|----------------|
1 & 2 & 3 & 4 & 1 & 2 & 3 & 4 & 1 & 2 & 3 & 4 & 1 & 2 & 3 & 4 &

G:|----------------|----------------|----------------|----------------|
D:|----------------|9>-99-9>--9-9-9-|--------------6-|7>-77-6-7-6-7-6-|
A:|7>-77-7>--7-7-7-|----------------|9>-99-9>--9-9---|----------------|
E:|----------------|----------------|----------------|----------------|
1 & 2 & 3 & 4 & 1 & 2 & 3 & 4 & 1 & 2 & 3 & 4 & 1 & 2 & 3 & 4 &

G:|----------------|----------------|----------------|
D:|----------------|9>-99-9>--9-9-9-|----------------|
A:|7>-77-7>--7-7-7-|----------------|9>-99-9>--9-7-7-|
E:|----------------|----------------|----------------|
1 & 2 & 3 & 4 & 1 & 2 & 3 & 4 & 1 & 2 & 3 & 4 &

x2
G:||----------------|----------------|----------------|----------------||
D:||----------------|----------------|----------------|----------------||
A:||5>----5>--5-5-5-|5>----5>--5-5-\-|2>----2>--------|2>----2>--------||
E:||----------------|----------------|----------------|----------------||
1 & 2 & 3 & 4 & 1 & 2 & 3 & 4 & 1 & 2 & 3 & 4 & 1 & 2 & 3 & 4 &
Mari7
Posts: 190
The tab is very cool
Gerr
Posts: 175
coooooll!
Sidsquishus
Posts: 1041
Thank you Mari7 and Gerr. Beautiful Colours tab submitted.

Now I will return to Like An Angel - did the intro earlier, so now I will start on the verse. Cheers.
Ezzo
Posts: 73
Great work, Sid.
Sidsquishus
Posts: 1041
grazie, ezzo!
jt4ever
Posts: 95
Nice!

Reply to this thread