0-9 A B C D E F G H I J K L M N O P Q R S T U V W X Y Z

Duran Duran Bass Tabs

Hugorj
Posts: 330
Please, check Beautiful Colours verse:

Tabs:
G|-------------------------------------------|
D|-------------------------------------------|
A|-----0-00------2-22------0-0-0-------------|
E|2-22-------0-00------2-22-------0-00-------|

Tabs:
G|-------------------------------------------------------------------------------|
D|-------------------------------------------------------------------------------|
A|-----0-00-7-77-2-22------0-00-7-77-2-22------0-00-7-77-2-22------0-00-7-77-2-22|
E|2-22----------------2-22----------------2-22----------------2-22---------------|

Tabs:
G|-------------------------------------------|
D|-------------------------------------------|
A|-----0-00------2-22------0-0-0-------------|
E|2-22-------0-00------2-22-------0-00-------|

(chorus)
Sidsquishus
Posts: 1084
Like An Angel intro (about first 30 seconds). Sound right?

Tabs:
Intro
G:|----------------|----------------|----------------|----------------|
D:|----------------|----------------|----------------|----------------|
A:|2>----2---2---2-|2>----2---2---2-|2>----2---2---2-|2>----2-------0-|
E:|----------------|----------------|----------------|----------223---|
1 & 2 & 3 & 4 & 1 & 2 & 3 & 4 & 1 & 2 & 3 & 4 & 1 & 2 & 3 & 4 &

G:|----------------|----------------|----------------|----------------|
D:|----------------|----------------|2>----2---2---2-|2---------------|
A:|2>----2---2---2-|2>----2-----0-2-|----------------|--3---3---3---2-|
E:|----------------|----------22----|----------------|----------------|
1 & 2 & 3 & 4 & 1 & 2 & 3 & 4 & 1 & 2 & 3 & 4 & 1 & 2 & 3 & 4 &

G:|----------------|----------------|----------------|----------------|
D:|----------------|----------------|----------------|----------------|
A:|2>----2---2---2-|2>----2-------0-|2>----2---2---2-|2>----2-------0-|
E:|----------------|----------223---|----------------|----------223---|
1 & 2 & 3 & 4 & 1 & 2 & 3 & 4 & 1 & 2 & 3 & 4 & 1 & 2 & 3 & 4 &

G:|----------------|----------------|----------------|----------------|
D:|----------------|----------------|2>----2---2---2-|2---------------|
A:|2>----2---2---2-|2>----2-----0-2-|----------------|--3---3---3---2-|
E:|----------------|----------22----|----------------|----------------|
1 & 2 & 3 & 4 & 1 & 2 & 3 & 4 & 1 & 2 & 3 & 4 & 1 & 2 & 3 & 4 &
Gerr
Posts: 182
Beautiful Colours - OK
Like An Angel - OK
Sidsquishus
Posts: 1084
thanks gerr. cheers
Hugorj
Posts: 330
Sid, I have difficult on the chorus of beautiful colors. Can you help me?
Sidsquishus
Posts: 1084
I will try. What do you have so far - anything you can share?

I will also need a link to the version you are working with. cheers
Hugorj
Posts: 330
Only Beautiful Colours part: http://www.youtube.com/watch?v=ItxIxAddmZA
Hugorj
Posts: 330
I did not know the other songs on the album, do you know each one? I would like to know their names
Sidsquishus
Posts: 1084
Hugorj,
Beautiful Colors was a song that did not make it onto a Duran Duran album. It may have been a B side on a single, or even released as a single. The link I gave for a Beautiful Colours version is the full album; it is not an official Duran Duran album. If you look at the info for the video, it lists all the songs on that album.

Here's is what I got for the root notes (a measure each) for the chorus of Beautiful Colours:

|E (A7) B (D9) F# (A9) A (D7)| x3
|E (A7) B (D9) F# (A9) D (A5) D (A5) B (E7) B E7)|

then it's into a fill based on the verse riff.
|F# A E B F# A E B!R|

The song might be in F# minor (F# G# A B C# D E); if so, most of the notes played will come from this scale.

In the first part of the chorus where the riff is repeated 3 times, I think there is an A (D7) played when making the transition from E to B (E…..AB…..) and likewise a G# when moving from the F# to the A.

Does this help?

Reply to this thread