0-9 A B C D E F G H I J K L M N O P Q R S T U V W X Y Z

Duran Duran Bass Tabs

Sidsquishus
Posts: 1086
Mari7, Gerr, as you requested, I have worked on Skin Divers. Here is what I have for the whole song. Check please. Cheers.

Tabs:
Intro (synth)
G:|--------|--------|--------|--------|---10-----|---10-----|---9-----|---7----|
D:|--------|--------|--------|--------|------12--|------12--|-----10--|-----8--|
A:|---R----|---R----|---R----|---R----|----------|----------|---------|--------|
E:|--------|--------|--------|--------|----------|----------|---------|--------|
1&2&3&4& 1&2&3&4& 1&2&3&4& 1&2&3&4& 1&2& 3& 4& 1&2& 3& 4& 1&2&3& 4& 1&2&3&4&

G:|---10-----|---10-----|---9-----|--------|--------|--------|--------|--------|
D:|------12--|------12--|-----10--|---0-0--|--------|--------|--------|--------|
A:|----------|----------|---------|--------|---R----|---R----|---R----|---R----|
E:|----------|----------|---------|--------|--------|--------|--------|--------|
1&2& 3& 4& 1&2& 3& 4& 1&2&3& 4& 1&2&3&4& 1&2&3&4& 1&2&3&4& 1&2&3&4& 1&2&3&4&

Verse 1
G:|-----7-7|-----7--|-----5--|--------|-----7--|-----7--|-----5--|--------|
D:|--------|--------|--------|-----3--|--------|--------|--------|---3-3--|
A:|-R--5-5-|-R------|-R--3---|-R------|-R--5---|-R--5---|-R------|--1-1---|
E:|--------|--------|--------|--------|--------|--------|--------|--------|
1&2&3&4& 1&2&3&4& 1&2&3&4& 1&2&3&4& 1&2&3&4& 1&2&3&4& 1&2&3&4& 1&2&3&4&

Chorus
G:|---7--7-|---7--7-|---5--5-|--------|---7--7-|---7--7-|--------|--------|
D:|--------|--------|--------|--------|--------|--------|--------|--------|
A:|5>---5-5|5>---5-5|3>---3-3|1-1-0-0-|5>---5-5|5>---5-5|5-5-3-3-|1-1-0-0-|
E:|--------|--------|--------|--------|--------|--------|--------|--------|
1&2&3&4& 1&2&3&4& 1&2&3&4& 1&2&3&4& 1&2&3&4& 1&2&3&4& 1&2&3&4& 1&2&3&4&

G:|--------|--------|--------|--------|--------|--------|--------|--------|
D:|--------|--------|--------|--------|--------|--------|--------|--------|
A:|55555555|55555555|33333333|11110000|55555555|55555555|33333333|11110000|
E:|--------|--------|--------|--------|--------|--------|--------|--------|
1 2 3 4 1 2 3 4 1 2 3 4 1 2 3 4 1 2 3 4 1 2 3 4 1 2 3 4 1 2 3 4

Fill
G:|--------|--------|--------|--------|
D:|--------|--------|--------|--------|
A:|5-5-5-5-|5-5-5-5-|5-5-5-5-|5-5-5-5-|
E:|--------|--------|--------|--------|
1 2 3 4 1 2 3 4 1 2 3 4 1 2 3 4

Verse 2
G:|-----7-7|-----7--|-----5--|--------|-----7--|-----7--|-----5--|--------|
D:|--------|--------|--------|-----3--|--------|--------|--------|---3-3--|
A:|-R--5-5-|-R------|-R--3---|-R------|-R--5---|-R--5---|-R------|--1-1---|
E:|--------|--------|--------|--------|--------|--------|--------|--------|
1&2&3&4& 1&2&3&4& 1&2&3&4& 1&2&3&4& 1&2&3&4& 1&2&3&4& 1&2&3&4& 1&2&3&4&

Chorus
G:|---7--7-|---7--7-|---5--5-|--------|---7--7-|---7--7-|--------|--------|
D:|--------|--------|--------|--------|--------|--------|--------|--------|
A:|5>---5-5|5>---5-5|3>---3-3|1-1-0-0-|5>---5-5|5>---5-5|5-5-3-3-|1-1-0-0-|
E:|--------|--------|--------|--------|--------|--------|--------|--------|
1&2&3&4& 1&2&3&4& 1&2&3&4& 1&2&3&4& 1&2&3&4& 1&2&3&4& 1&2&3&4& 1&2&3&4&

G:|--------|--------|--------|--------|--------|--------|--------|--------|
D:|--------|--------|--------|--------|--------|--------|--------|--------|
A:|55555555|55555555|33333333|11110000|55555555|55555555|33333333|11110000|
E:|--------|--------|--------|--------|--------|--------|--------|--------|
1 2 3 4 1 2 3 4 1 2 3 4 1 2 3 4 1 2 3 4 1 2 3 4 1 2 3 4 1 2 3 4

Fill
G:|--------|--------|--------|--------|
D:|--------|--------|--------|--------|
A:|5-5-5-5-|5-5-5-5-|5-5-5-5-|5-5-5-5-|
E:|--------|--------|--------|--------|
1 2 3 4 1 2 3 4 1 2 3 4 1 2 3 4

Verse 3
G:|-----7-7|-----7--|-----5--|--------|-----7--|-----7--|-----5--|--------|
D:|--------|--------|--------|-----3--|--------|--------|--------|---3-3--|
A:|-R--5-5-|-R------|-R--3---|-R------|-R--5---|-R--5---|-R------|--1-1---|
E:|--------|--------|--------|--------|--------|--------|--------|--------|
1&2&3&4& 1&2&3&4& 1&2&3&4& 1&2&3&4& 1&2&3&4& 1&2&3&4& 1&2&3&4& 1&2&3&4&

Chorus Reprise I
G:|---7--7-|---7--7-|---5--5-|--------|---7--7-|---7--7-|--------|--------|
D:|--------|--------|--------|--------|--------|--------|--------|--------|
A:|5>---5-5|5>---5-5|3>---3-3|1-1-0-0-|5>---5-5|5>---5-5|5-5-3-3-|1-1-0-0-|
E:|--------|--------|--------|--------|--------|--------|--------|--------|
1&2&3&4& 1&2&3&4& 1&2&3&4& 1&2&3&4& 1&2&3&4& 1&2&3&4& 1&2&3&4& 1&2&3&4&

G:|--------|--------|--------|--------|--------|--------|--------|--------|
D:|--------|--------|--------|--------|--------|--------|--------|--------|
A:|5-5-5-5-|5-5-5-5-|3-3-3-3-|1-1-0-0-|5-5-5-5-|5-5-5-5-|3-3-3-3-|1-1-0-0-|
E:|--------|--------|--------|--------|--------|--------|--------|--------|
1 2 3 4 1 2 3 4 1 2 3 4 1 2 3 4 1 2 3 4 1 2 3 4 1 2 3 4 1 2 3 4

Rap Section
G:|--------|--------|--------|--------|--------|--------|--------|--------|
D:|--------|--------|--------|--------|--------|--------|--------|--------|
A:|55555555|55555555|33333333|11110000|55555555|55555555|33333333|11110000|
E:|--------|--------|--------|--------|--------|--------|--------|--------|
1 2 3 4 1 2 3 4 1 2 3 4 1 2 3 4 1 2 3 4 1 2 3 4 1 2 3 4 1 2 3 4

Chorus Reprise II
G:|--------|--------|--------|--------|--------|--------|--------|--------|
D:|--------|--------|--------|--------|--------|--------|--------|--------|
A:|55555555|55555555|33333333|11110000|55555555|55555555|33333333|11110000|
E:|--------|--------|--------|--------|--------|--------|--------|--------|
1 2 3 4 1 2 3 4 1 2 3 4 1 2 3 4 1 2 3 4 1 2 3 4 1 2 3 4 1 2 3 4

Outro x3
G:||--------|--------|--------|--------|--------|--------|--------|--------||
D:||--------|--------|--------|--------|--------|--------|--------|--------||
A:||55555555|55555555|33333333|11110000|55555555|55555555|33333333|11110000||
E:||--------|--------|--------|--------|--------|--------|--------|--------||
1 2 3 4 1 2 3 4 1 2 3 4 1 2 3 4 1 2 3 4 1 2 3 4 1 2 3 4 1 2 3 4

G:|--------|--------|--------|--------|
D:|--------|--------|--------|--------|
A:|55555555|55555555|33333333|!--R----|
E:|--------|--------|--------|--------|
1 2 3 4 1 2 3 4 1 2 3 4 1 2 3 4

There's a lot of room during the verse for your own interpretations. I think JT plays more root notes (and sometimes more octave pops) than shown here during verse 2 and 3.
Hugorj
Posts: 330
Perfect, Sid. I'll play it mixing two verses tabs (yours and previous pages).

Cheers
Hugorj
Posts: 330
Nice live tab is no longer a request. I'm playing with the album version.
Ezzo
Posts: 85
Very good. I liked this tab
Sidsquishus
Posts: 1086
Thanks Hugorj, thanks ezzo, I have submitted the tab. cheers
yeah i just tried it, sounded good sid.
Sidsquishus
Posts: 1086
Thanks Slam!
Quote:
Thanks Slam!

no problem
Mari7
Posts: 201
Congrats, Sid. Another great tab.
Now, the list is:

1. Like an Angel
2. The Valley
3. The Chauffeur live

I forgot something?
Sidsquishus
Posts: 1086
That is the list to my knowledge. I will work on Like An Angel when I have time. cheers

Reply to this thread