0-9 A B C D E F G H I J K L M N O P Q R S T U V W X Y Z

Duran Duran Bass Tabs

Sidsquishus
Posts: 1084
Hugorj, yes, I agree. Here is what I have for the intro and first verse. I think it is a very sparse bass line, with much of the bass coming from the keyboards (at least in the first part of the song).

Tabs:
Intro (synth)
G:|--------|--------|--------|--------|---10-----|---10-----|---9-----|---7----|
D:|--------|--------|--------|--------|------12--|------12--|-----10--|-----8--|
A:|---R----|---R----|---R----|---R----|----------|----------|---------|--------|
E:|--------|--------|--------|--------|----------|----------|---------|--------|
1&2&3&4& 1&2&3&4& 1&2&3&4& 1&2&3&4& 1&2& 3& 4& 1&2& 3& 4& 1&2&3& 4& 1&2&3&4&

G:|---10-----|---10-----|---9-----|--------|--------|--------|--------|--------|
D:|------12--|------12--|-----10--|---0-0--|--------|--------|--------|--------|
A:|----------|----------|---------|--------|---R----|---R----|---R----|---R----|
E:|----------|----------|---------|--------|--------|--------|--------|--------|
1&2& 3& 4& 1&2& 3& 4& 1&2&3& 4& 1&2&3&4& 1&2&3&4& 1&2&3&4& 1&2&3&4& 1&2&3&4&

Verse (notes on the D and G strings are pops)
G:|-----7-7|-----7--|-----5--|--------|-----7--|-----7--|-----5--|--------|
D:|--------|--------|--------|-----3--|--------|--------|--------|---3-3--|
A:|-R--5-5-|-R------|-R--3---|-R------|-R--5---|-R--5---|-R------|--1-1---|
E:|--------|--------|--------|--------|--------|--------|--------|--------|
1&2&3&4& 1&2&3&4& 1&2&3&4& 1&2&3&4& 1&2&3&4& 1&2&3&4& 1&2&3&4& 1&2&3&4&
Gerr
Posts: 183
This tab is good. It has a small, but nice melody.
Gerr
Posts: 183
Hugorj, I agree with The Cheuffeur project. This song deserves better than the existing tab. Maybe a live version?
Ezzo
Posts: 84
Thanks Sid and Hugorj. I played Skin Divers with these two tabs.
Mari7
Posts: 199
Hello to all. I announce my return! I want to thank all those who remember of me while I was gone, I really like the bigbass community.
More details I can only give on privately. It's alright!
Cheers.
Mari7
Posts: 199
I'll check all that have posted
Mari7
Posts: 199
Quote:
Gerr, I agree with JT Top 1! (but I respect others opinions)


I agree
Sidsquishus
Posts: 1084
Quote:
Thanks Sid and Hugorj. I played Skin Divers with these two tabs.

You are welcome, Ezzo. Glad that I could help you to learn this song!
Hugorj
Posts: 330
Nice selfie Mari!
Ezzo
Posts: 84
John Taylor approves Mari7's return!

Reply to this thread