0-9 A B C D E F G H I J K L M N O P Q R S T U V W X Y Z

Duran Duran Bass Tabs

Ezzo
Posts: 86
Hahahahahaha
Sidsquishus
Posts: 1146
OK, thanks for the feedback. Here is how I will tab the chorus of Falling Down:

Tabs:
Chorus
G:|----------------|----------------|----------------|----------------|
D:|------1-2-2-2-2-|----------------|------1-2-2-2-2-|----------------|
A:|4>--4-----------|2>--1---------2-|4>--4-----------|2>--1---------2-|
E:|----------------|------4-2-2-4---|----------------|------4-2-2-4---|
1 & 2 & 3 & 4 & 1 & 2 & 3 & 4 & 1 & 2 & 3 & 4 & 1 & 2 & 3 & 4 &

G:|----------------|----------------|----------------|----------------|
D:|------1-2-2-2-2-|----------------|------1-2-2-2-2-|----------------|
A:|4>--4-----------|2>--1---------2-|4---4-----------|2>--1---------2-|
E:|----------------|------4-2-2-4---|--4-------------|------4-2-2-4---|
1 & 2 & 3 & 4 & 1 & 2 & 3 & 4 & 1 & 2 & 3 & 4 & 1 & 2 & 3 & 4 &
Gerr
Posts: 196
It was better that way
Sidsquishus
Posts: 1146
I've submitted a tab for Falling Down. I ended up changing the chorus a little bit in measure 7 - the posting above has been edited to show the change.

Anyway, let me know if you think there is something wrong with the tab. Cheers.
Hugorj
Posts: 343
OK Sid
Sidsquishus
Posts: 1146
Sorry. It is taking Johnny a long time to get it up this time.

Ah, the ravages of aging.
Marko1960
Posts: 1051
It's not just getting it up it's keeping it up for any length of time, I've had mine up about thirty times in the last 24 hours but it only lasts a few seconds, looks great when it's up but it's all too brief…….I'm talking about my new profile pic, I get it up but when I come back to the thread it's gone
Ezzo
Posts: 86
Mari7 was right on a previous page. I also think the album version is different from the live version of Nice (the bass sound is higher in the live version too).
You really do a good job here. I have a growing desire to play the sounds of John.
Sidsquishus
Posts: 1146
Johnny got it up! Yeah!
Sidsquishus
Posts: 1146
So…I think Hugorj is working on Box Full o' Honey; Dannybassman finished Fast As Light and is working on Like An Angel and Electric Barbarella.

Is anyone working on Nice (live version) or The Valley? I don't plan to work on either of these (I don't like them enough to work on them). Someone should have a go at these two songs.

Reply to this thread