0-9 A B C D E F G H I J K L M N O P Q R S T U V W X Y Z

Duran Duran Bass Tabs

Hugorj
Posts: 307
Sid, I think the chorus is

Tabs:
G|--------------------------------------|
D|--------------------------------------|
A|4-467-76------------------------------|
E|--------7-642-------------------------|
Gerr
Posts: 175
Sid, your verses are perfect. But I agree with Hugorj,the chorus does not have the sound so acute, I like the Hugo's chorus
Sidsquishus
Posts: 1039
thanks Hugorj, thanks Gerr. What do you think of this chorus?

Tabs:
G:|----------------|4>--3-----------|----------------|4>--3-----------|
D:|------1-2-2-2---|------6-4-4-6---|------1-2-2-2---|------6-4-4-6---|
A:|4>--4---------2-|--------------6-|4>--4---------2-|--------------6-|
E:|----------------|----------------|----------------|----------------|
1 & 2 & 3 & 4 & 1 & 2 & 3 & 4 & 1 & 2 & 3 & 4 & 1 & 2 & 3 & 4 &
Hugorj
Posts: 307
Sid, I liked it. But I think it can only be used as a variation of the chorus (which is often used) along the music. From what I heard, the E string dominates the chorus.
Sidsquishus
Posts: 1039
Mari7? Your thoughts?
Ezzo
Posts: 73
Hugorj and Sid, I liked your instructions. All you need is now is pretty cool for beginners.
Mari7
Posts: 190
Sid, I prefer your verses with Hugo's chorus.
Mari7
Posts: 190
Barbarella news??
Marko1960
Posts: 916
Only two to 800
Marko1960
Posts: 916
Aye, two

Reply to this thread