0-9 A B C D E F G H I J K L M N O P Q R S T U V W X Y Z

Duran Duran Bass Tabs

Ezzo
Posts: 79
Thanks Hugorj and Sid. I'll try to play it.
Gerr
Posts: 178
They chose well. It's important that you learn one sound per time, Ezzo, because you are beginner.
Mari7
Posts: 194
I do a reverse question Ezzo. What are the hardest DD tabs?
Gerr
Posts: 178
Save Mari!

I think the most difficult are Girls on Film (with all variations) and Rio.
Ezzo
Posts: 79


John Taylor approves this thread!!!
Sidsquishus
Posts: 1069
That's funny, Ezzo!
Sidsquishus
Posts: 1069
Intro, first verse, prechorus, and chorus of Falling Down. Please check. Cheers.

Tabs:
Intro (guitar) x2
G:||----------------|----------------|----------------|----------------||
D:||----------------|----------------|----------------|----------------||
A:||-------R--------|-------R--------|-------R--------|-------R--------||
E:||----------------|----------------|----------------|----------------||
1 & 2 & 3 & 4 & 1 & 2 & 3 & 4 & 1 & 2 & 3 & 4 & 1 & 2 & 3 & 4 &

Verse
G:|----------------|----------------|----------------|----------------|
D:|----------------|9-9-9-----------|----------------|9-9-9-----------|
A:|4-4----44-4-6-7-|--------9-9-9---|------------6-7-|--------9-9-9-6-|
E:|----------------|----------------|9-9----99-9-----|----------------|
1 & 2 & 3 & 4 & 1 & 2 & 3 & 4 & 1 & 2 & 3 & 4 & 1 & 2 & 3 & 4 &

G:|----------------|----------------|-----------------|----------------|
D:|----------------|9-9-9-----------|-----------------|9-9-9-----------|
A:|4-4----44-4-6-7-|--------9-9-9---|-----------------|--------9-9-9-9-|
E:|----------------|----------------|9-9----99-9-11\--|----------------|
1 & 2 & 3 & 4 & 1 & 2 & 3 & 4 & 1 & 2 & 3 & 4 & 1 & 2 & 3 & 4 &

Prechorus
G:|----------------|----------------|----------------|----------------|
D:|--------------4-|6-6-6-6-6-6-6-9-|----------------|6-6-6-6-6-6-6---|
A:|7-7-7-7-7-7-7---|----------------|--------------7-|--------------9-|
E:|----------------|----------------|9-9-9-9-9-9-7---|----------------|
1 & 2 & 3 & 4 & 1 & 2 & 3 & 4 & 1 & 2 & 3 & 4 & 1 & 2 & 3 & 4 &

G:|----------------|----------------|------------------|----------------|
D:|--------------4-|6-6-6-6-6-6-6-9-|------------------|----------------|
A:|7-7-7-7-7-7-7---|----------------|------------------|----------------|
E:|----------------|----------------|9-9-9-9-9-9-10-11-|7-7-7---5-5-5-4-|
1 & 2 & 3 & 4 & 1 & 2 & 3 & 4 & 1 & 2 & 3 & 4 & 1 & 2 & 3 & 4 &

Chorus
G:|----------------|------------------|----------------|------------------|
D:|----------------|9---8-----------9-|----------------|9---8-----------9-|
A:|4>--4-6-7-7-7---|------11-9-9-11---|------6-7-7-7---|------11-9-9-11---|
E:|--------------9-|------------------|9>--9---------9-|------------------|
1 & 2 & 3 & 4 & 1 & 2 & 3 & 4 & 1 & 2 & 3 & 4 & 1 & 2 & 3 & 4 &

G:|----------------|------------------|-----------------|------------------|
D:|----------------|9---8-----------9-|-----------------|9---8-----------9-|
A:|------6-7-7-7---|------11-9-9-11---|--9-11---7-7-7-7-|------11-9-9-11---|
E:|9>--9---------9-|------------------|9------9---------|------------------|
1 & 2 & 3 & 4 & 1 & 2 & 3 & 4 & 1 & 2 & 3 & 4 & 1 & 2 & 3 & 4 &

Correction to the verse part. In measures 2, 4, 6, and 8 instead of the B at D9 it should be the B at E7.
Sidsquishus
Posts: 1069
new posting with corrections below
Sidsquishus
Posts: 1069
Falling Down with corrections and different fretting for the chorus:

Tabs:
Intro (guitar) x2
G:||----------------|----------------|----------------|----------------||
D:||----------------|----------------|----------------|----------------||
A:||-------R--------|-------R--------|-------R--------|-------R--------||
E:||----------------|----------------|----------------|----------------||
1 & 2 & 3 & 4 & 1 & 2 & 3 & 4 & 1 & 2 & 3 & 4 & 1 & 2 & 3 & 4 &

Verse
G:|----------------|----------------|----------------|----------------|
D:|----------------|----------------|----------------|----------------|
A:|4-4-R--44-4-6-7-|--------9-9-9-R-|------------6-7-|--------9-9-9-6-|
E:|----------------|7-7-7-R---------|9-9-R--99-9-----|7-7-7-R---------|
1 & 2 & 3 & 4 & 1 & 2 & 3 & 4 & 1 & 2 & 3 & 4 & 1 & 2 & 3 & 4 &

G:|----------------|----------------|-----------------|----------------|
D:|----------------|----------------|-----------------|----------------|
A:|4-4-R--44-4-6-7-|--------9-9-9-R-|-----------------|--------9-9-9-9-|
E:|----------------|7-7-7-R---------|9-9-R--99-9-11\--|7-7-7-R---------|
1 & 2 & 3 & 4 & 1 & 2 & 3 & 4 & 1 & 2 & 3 & 4 & 1 & 2 & 3 & 4 &

Prechorus
G:|----------------|----------------|----------------|----------------|
D:|--------------4-|6-6-6-6-6-6-6-9-|----------------|6-6-6-6-6-6-6---|
A:|7-7-7-7-7-7-7---|----------------|--------------7-|--------------9-|
E:|----------------|----------------|9-9-9-9-9-9-7---|----------------|
1 & 2 & 3 & 4 & 1 & 2 & 3 & 4 & 1 & 2 & 3 & 4 & 1 & 2 & 3 & 4 &

G:|----------------|----------------|------------------|----------------|
D:|--------------4-|6-6-6-6-6-6-6-9-|------------------|----------------|
A:|7-7-7-7-7-7-7---|----------------|------------------|----------------|
E:|----------------|----------------|9-9-9-9-9-9-10-11-|7-7-7---5-5-5-4-|
1 & 2 & 3 & 4 & 1 & 2 & 3 & 4 & 1 & 2 & 3 & 4 & 1 & 2 & 3 & 4 &

Chorus
G:|----------------|4>--3---------4-|----------------|4>--3---------4-|
D:|----------------|------6-4-4-6---|----------------|------6-4-4-6---|
A:|4>--4-6-7-7-7-4-|----------------|4>--4-6-7-7-7-4-|----------------|
E:|----------------|----------------|----------------|----------------|
1 & 2 & 3 & 4 & 1 & 2 & 3 & 4 & 1 & 2 & 3 & 4 & 1 & 2 & 3 & 4 &

G:|----------------|4>--3---------4-|----------------|4>--3---------4-|
D:|----------------|------6-4-4-6---|--4-6-----------|------6-4-4-6---|
A:|4>--4-6-7-7-7-4-|----------------|4-----4-7-7-7-7-|----------------|
E:|----------------|----------------|----------------|----------------|
1 & 2 & 3 & 4 & 1 & 2 & 3 & 4 & 1 & 2 & 3 & 4 & 1 & 2 & 3 & 4 &

Fill
G:|----------------|----------------|----------------|----------------|
D:|----------------|----------------|----------------|----------------|
A:|------------6-7-|--------9-9-9-R-|------------6-7-|----------------|
E:|9>--R--99-9-----|7-7-R-----------|9>--R--99-9-----|7-7-R-----R-----|
1 & 2 & 3 & 4 & 1 & 2 & 3 & 4 & 1 & 2 & 3 & 4 & 1 & 2 & 3 & 4 &

Verse Reprise
G:|----------------|----------------|----------------|----------------|
D:|----------------|----------------|----------------|----------------|
A:|4-4-R--44-4-6-7-|--------9-9-9-R-|------------6-7-|--------9-9-9-6-|
E:|----------------|7-7-7-R---------|9-9-R--99-9-----|7-7-7-R---------|
1 & 2 & 3 & 4 & 1 & 2 & 3 & 4 & 1 & 2 & 3 & 4 & 1 & 2 & 3 & 4 &

G:|----------------|----------------|----------------|----------------|
D:|----------------|----------------|----------------|----------------|
A:|4-4-R--44-4-6-7-|--------9-9-9-R-|------------6-7\|2-R-----9-9-9---|
E:|----------------|7-7-7-R---------|9-9-R--99-9-----|----------------|
1 & 2 & 3 & 4 & 1 & 2 & 3 & 4 & 1 & 2 & 3 & 4 & 1 & 2 & 3 & 4 &

Prechorus
G:|----------------|----------------|----------------|----------------|
D:|--------------4-|6-6-6-6-6-6-6-9-|----------------|6-6-6-6-6-6-6---|
A:|7-7-7-7-7-7-7---|----------------|--------------7-|--------------9-|
E:|----------------|----------------|9-9-9-9-9-9-7---|----------------|
1 & 2 & 3 & 4 & 1 & 2 & 3 & 4 & 1 & 2 & 3 & 4 & 1 & 2 & 3 & 4 &

G:|----------------|----------------|------------------|----------------|
D:|--------------4-|6-6-6-6-6-6-6-9-|------------------|----------------|
A:|7-7-7-7-7-7-7---|----------------|------------------|----------------|
E:|----------------|----------------|9-9-9-9-9-9-10-11-|7-7-7---5-5-5-4-|
1 & 2 & 3 & 4 & 1 & 2 & 3 & 4 & 1 & 2 & 3 & 4 & 1 & 2 & 3 & 4 &

Chorus
G:|----------------|4>--3---------4-|----------------|4>--3---------4-|
D:|----------------|------6-4-4-6---|----------------|------6-4-4-6---|
A:|4>--4-6-7-7-7-4-|----------------|4>--4-6-7-7-7-4-|----------------|
E:|----------------|----------------|----------------|----------------|
1 & 2 & 3 & 4 & 1 & 2 & 3 & 4 & 1 & 2 & 3 & 4 & 1 & 2 & 3 & 4 &

G:|----------------|4>--3---------4-|----------------|4>--3---------4-|
D:|----------------|------6-4-4-6---|--4-6-----------|------6-4-4-6---|
A:|4>--4-6-7-7-7-4-|----------------|4-----4-7-7-7-7-|----------------|
E:|----------------|----------------|----------------|----------------|
1 & 2 & 3 & 4 & 1 & 2 & 3 & 4 & 1 & 2 & 3 & 4 & 1 & 2 & 3 & 4 &

I'm showing the second chorus same as the first - not certain that is correct as I haven't worked through the second chorus yet.
Hugorj
Posts: 323
Hahahhaa Ezzo is funny.

Sid, I'll check it

Reply to this thread