0-9 A B C D E F G H I J K L M N O P Q R S T U V W X Y Z

Duran Duran Bass Tabs

DANNYBASSMAN93 [top submitter]
Posts: 510
gerr youre alive!!! good to hear youre with us
DANNYBASSMAN93 [top submitter]
Posts: 510
gerr youre alive!!! good to hear youre with us
DANNYBASSMAN93 [top submitter]
Posts: 510
gerr youre alive!!! good to hear youre with us
Gerr
Posts: 183
Cool Danny!!Now I can devote myself to music again!
Gerr
Posts: 183
You have set a great goal for tab requests. Each one (Sid, Hugorj, Danny) is doing two/three songs?
Sidsquishus
Posts: 1084
For checking. Intro, first verse, and first chorus of Perfect Day. Cheers.

Tabs:
Intro
G:|------------|------------|
D:|------------|------------|
A:|------1>----|------1>----|
E:|1>----------|1>----------|
1 2 3 4 1 2 3 4

Verse
G:|------------|------------|-------------|-----------108----|
D:|------------|------------|4>444>-------|--------------1110|
A:|------6>----|------4>----|-------6>----|------------------|
E:|6>----------|4>----------|-------------|1>----------------|
1 2 3 4 1 2 3 4 1 2 3 4 1 2 3 4

G:|------------|------------|------------|-------------|
D:|8>----------|------------|------1>--11|-------------|
A:|------6>----|------4>-641|------------|-------0>-3>-|
E:|----------12|4>-4>-------|2>--22------|1>11---------|
1 2 3 4 1 2 3 4 1 2 3 4 1 2 3 4

Chorus
G:|---------81087--|------------|------------|------------|------------|
D:|--------------87|------------|------------|5>----------|5>----------|
A:|------6>--------|5>-5>56>-653|------8>--68|---8>-6>---8|---8>-6>-66-|
E:|6>-6>6----------|------------|6>--46------|------------|------------|
1 2 3 4 1 2 3 4 1 2 3 4 1 2 3 4 1 2 3 4
Sidsquishus
Posts: 1084
Quote:
Guys, I'm back. I suffered a car accident a few weeks ago. What do you want to check, just ask me. You are doing a great job here. Congratulations to BigBass!

My new tab of Before the Rain is in the New Tabs; please check and rate if you wish. Thanks.
Sidsquishus
Posts: 1084
For checking. Second verse, second chorus, and solo of Perfect Day.

Tabs:
Verse 2
G:|------------|------6>-5>-|------------|------------|
D:|----------34|6>-666------|4>-444------|------7>----|
A:|-----86>----|------------|------6>---6|8>-------8>-|
E:|6>--8-------|------------|------------|------------|
1 2 3 4 1 2 3 4 1 2 3 4 1 2 3 4

G:|------------|------------|------------|-------------|
D:|----------34|6>-666-----3|4>-444------|------7>-10>-|
A:|------6>-6--|------4>-46-|------6>---6|8>-8>-------8|
E:|6>-666------|------------|------------|-------------|
1 2 3 4 1 2 3 4 1 2 3 4 1 2 3 4

Chorus 2
G:|---------81087--|------------|------------|------------|------------|
D:|8>-8>8--------87|------------|------------|5>----------|5>----------|
A:|------6>--------|5>-5>56>-65-|------8>--68|---8>-6>-6-8|---8>-6>-66-|
E:|----------------|-----------8|6>--46------|------------|------------|
1 2 3 4 1 2 3 4 1 2 3 4 1 2 3 4 1 2 3 4

Solo
G:|------------|------------|------------|
D:|5>----------|5>----------|5>----------|
A:|---8>-6>-668|---8>-6>-668|---8>-6>-6--|
E:|------------|------------|------------|
1 2 3 4 1 2 3 4 1 2 3 4
Sidsquishus
Posts: 1084
tab for Perfect Day submitted.
Gerr
Posts: 183
Sid, I checked both. It's OK

Reply to this thread