0-9 A B C D E F G H I J K L M N O P Q R S T U V W X Y Z

Duran Duran Bass Tabs

Mari7
Posts: 203
Awesome, Hugorj! Correct.
Sid, I think that this music was a experience…
Hugorj
Posts: 335
Thank you, Mari7
Sidsquishus
Posts: 1115
Please check. Before the Rain.

I have left the first two choruses blank thinking bass rests. What do you think? Should the bass play something here or just rest?

Tabs:
Intro (cello)
G:|--------|--------|--------|--------| played by a cello,
D:|--------|--------|--------|5>--4>--| but the bass could
A:|----7>--|5>------|----7>--|--------| play this as well
E:|7>------|----2>--|7>------|--------|
1 2 3 4 1 2 3 4 1 2 3 4 1 2 3 4

Verse (cello) 0:12.5 (maybe the bass can play this instead of sleeping)
G:|--------|--------|--------|--------|--------|--------|--------|--------|
D:|--------|--------|--------|--------|--------|--------|----5>--|--------|
A:|2>-0----|---02>--|2>-0----|4>------|2>------|---02>--|2>------|4>-4----|
E:|----2>-3|2>------|----3>--|----2>--|----2>-3|2>------|--------|----2>--|
1 2 3 4 1 2 3 4 1 2 3 4 1 2 3 4 1 2 3 4 1 2 3 4 1 2 3 4 1 2 3 4

Chorus 0: 37.1
G:|--------|--------|--------|--------|--------|--------|--------|--------|
D:|--------|--------|--------|--------|--------|--------|--------|--------|
A:|--------|--------|--------|--------|--------|--------|--------|--------|
E:|--------|--------|--------|--------|--------|--------|--------|--------|
1 2 3 4 1 2 3 4 1 2 3 4 1 2 3 4 1 2 3 4 1 2 3 4 1 2 3 4 1 2 3 4

Intro (cello & bass) 1:01.7
G:|--------|--------|--------|--------|
D:|--------|--------|--------|5>--4>--|
A:|----7>--|5>------|----7>--|--------|
E:|7>------|----2>--|7>------|--------|
1 2 3 4 1 2 3 4 1 2 3 4 1 2 3 4

Verse (cello) 1:14 bass can play this, or sleep some more
G:|--------|--------|--------|--------|--------|--------|--------|--------|
D:|--------|--------|--------|--------|--------|--------|----5>--|--------|
A:|2>-0----|---02>--|2>-0----|4>------|2>------|---02>--|2>------|4>-4----|
E:|----2>-3|2>------|----3>--|----2>--|----2>-3|2>------|--------|----2>--|
1 2 3 4 1 2 3 4 1 2 3 4 1 2 3 4 1 2 3 4 1 2 3 4 1 2 3 4 1 2 3 4

Chorus 1: 38.7
G:|--------|--------|--------|--------|--------|--------|--------|--------|
D:|--------|--------|--------|--------|--------|--------|--------|--------|
A:|--------|--------|--------|--------|--------|--------|--------|--------|
E:|--------|--------|--------|--------|--------|--------|--------|--------|
1 2 3 4 1 2 3 4 1 2 3 4 1 2 3 4 1 2 3 4 1 2 3 4 1 2 3 4 1 2 3 4

Fill 2:03.2 x4
G:||------------|--------|--------|----------||
D:||------------|--------|--------|----------||
A:||---/10101010|---/9999|---/9999|---/7777--||
E:||333---------|222-----|222-----|000-------||

Intro Reprise 2:52.5
G:|--------|--------|--------|---------|
D:|--------|--------|--------|---------|
A:|----7>--|5>------|----7>--|10>--9>--|
E:|7>------|----2>--|7>------|---------|
1 2 3 4 1 2 3 4 1 2 3 4 1 2 3 4

Verse Reprise 3:04.8
G:|--------|--------|----------|--------|---------|--------|------------|--------|
D:|--------|--------|----------|--------|---------|--------|------------|--------|
A:|----9>--|9>------|----10>-10|----9-9-|----9>---|9>-9----|------10>-10|----9-9-|
E:|7>------|---57>--|7>-7------|9>-9----|7>-7---10|----7>-7|10>-10------|9>-9----|

Chorus 3:29.4
G:|--------|--------|--------|-----------|--------|---------|--------|--------|
D:|--------|--------|--------|-----------|--------|---------|--------|--------|
A:|77779>9>|-----45>|77779999|----101010>|77779>9>|------975|4>444444|--------|
E:|--------|7>7>7---|--------|7>-7-------|--------|7>-/10---|--------|2>------|
1 2 3 4 1 2 3 4 1 2 3 4 1 2 3 4 1 2 3 4 1 2 3 4 1 2 3 4 1 2 3 4

Outro 3:53.9 bass rests
G:|--------|--------|--------|--------|
D:|--------|--------|--------|--------|
A:|---R----|---R----|---R----|---R----|
E:|--------|--------|--------|--------|
1 2 3 4 1 2 3 4 1 2 3 4 1 2 3 4
Hugorj
Posts: 335
I think the bass is used from 2'05" until the end. I like of your cello part. It's very good, Sid
DANNYBASSMAN93 [top submitter]
Posts: 510
hey guys sorry ive been away tabbing some requests. so what do we need to fill the duran duran gap guys?
Mari7
Posts: 203
Hi Danny!
Requests:

Perfect Day (Sid)
Before The Rain (ver.2 - Sid)
The Valley (Hugorj)
Electric Barbarella (??)
Like An Angel (??)
Falling Down (Sid)
Box Full o' Honey (ver.2 - ??)
Nice LIVE version (??)
Sidsquishus
Posts: 1115
There's a 5 star bass tab for Box Full o' Honey on UG.

http://tabs.ultimate-guitar.com/d/duran_duran/box_full_o_honey_btab.htm

Have you tried this tab? Maybe no one needs to work on this song.
Mari7
Posts: 203
Yes Sid, this tab appears to be good, but it would be good to adapt for 4 strings
Sidsquishus
Posts: 1115
OK - I will transpose this for a four string in Drop D and post it here for checking.
Sidsquishus
Posts: 1115
Five string tab for Box Full o' Honey transposed for four string in Drop D (D-A-D-G). Please check.

Tabs:
Box Full O' Honey - Bass Tab
Song by: Duran Duran
Album: Red Carpet Massacre

Tabbed by: Connor McKee a.k.a. running4cover

~NO BASS UNTIL 0:55 @ 0:00

|| VERSE @ 0:55
. . . . . . . . . . . . . . . .
G||----------------|----------------|----------------|----------------|
D||----------------|----------------|----------------|----------------|
A||----------------|------1-----1---|4---------4-----|----------------|
D||1-----4---1-3/4-|4---------4-----|------6-----6---|6-----8---6-4\3-|

~REPEAT VERSE x3 @ 1:02

|| Chorus Part ONE @ 1:26
. . . . . . . . . . . . . . . .
G||----------------|----------------|----------------|----------------|
D||----------------|----------------|----------------|----------------|
A||----------------|----------------|2-----2---2-2-2-|1-----1---1-1-1-|
D||1-----1---1-1-1-|2-----2---2-2-4-|----------------|----------------|

~REPEAT CHORUS PART ONE @ 1: 33

|| Chorus Part TWO @ 1:41
. . . . . . . . . . . . . . . .
G||----------------|----------------|----------------|----------------|
D||----------------|----------------|----------------|----------------|
A||----------------|----------------|----------4-----|----------------|
D||6-----6---4-6-4-|6-----6---4-3---|1-----1-----1-4/|13*-------------|

|| Bridge @ 1:49
. . . . . . . . . . . . . . . .
G||----------------|----------------|----------------|----------------|
D||----------------|----------------|----------------|----------------|
A||----------------|------4--\3-1---|----------------|----------------|
D||1-----4---1-3/6-|8---------------|6-----6---4-3---|6-----6---4-6---|

~REPEAT BRIDGE @ 1:56

~REPEAT VERSE x2 @ 2:05

~NO BASS UNTIL 2: 36 @ 2:20

~REPEAT CHORUS PART ONE x2 @ 2: 36

|| Outro @ 2:52
. . . . . . . . . . . . . . . .
G||----------------|----------------|----------------|----------------|
D||----------------|----------------|----------------|----------------|
A||----------------|6-4-------------|----------------|6-4-------------|
D||6*--------------|--------8\6-6---|4*--------------|--------8-6-----|

G||----------------|----------------|----------------|----------------|
D||----------------|----------------|----------------|----------------|
A||----------------|----------------|----------------|----------------|
D||2*--------------|----------------|1*--------------|----------------|

Reply to this thread