0-9 A B C D E F G H I J K L M N O P Q R S T U V W X Y Z

Duran Duran Bass Tabs

Sidsquishus
Posts: 1034
Playing With Uranium. Please check; let me know what you think. JT might be using a bit of signal processing on this one - maybe a touch of a flanger or chorus, maybe. cheers.

Tabs:
Intro (synth, drums) x2
G:|--------|---------||--------|--------|--------|--------||--------|--------|
D:|--------|---------||-------2|3-33-332|5-535535|--------||--------|--------|
A:|---R----|-----10\-||0-00-03-|--------|--------|5-55-555||7>75>77-|7>75>77-|
E:|--------|---------||--------|--------|--------|--------||--------|--------|
+ + + + + + + + + + + + + + + + + + + + + + + + + + + + + + + +

Verse x2
G:||--------|--------|--------|--------|
D:||--------|--------|--------|--------|
A:||7>75>77-|7>75>77-|7>75>775|7>75>77-|
E:||--------|--------|--------|--------|
+ + + + + + + + + + + + + + + +

Chorus x3
G:|--------|--------|--------|--------||--------|--------|--------|--------||
D:|7-77-7--|--------|5-535535|--------||-------2|3-33-332|5-535535|--------||
A:|-------7|8-88-887|--------|5-55-555||0-00-03-|--------|--------|5-55-555||
E:|------8-|--------|--------|--------||--------|--------|--------|--------||
+ + + + + + + + + + + + + + + + + + + + + + + + + + + + + + + +

Verse x2
G:||--------|--------|--------|--------|
D:||--------|--------|--------|--------|
A:||7>75>77-|7>75>77-|7>75>775|7>75>77-|
E:||--------|--------|--------|--------|

Chorus x3
G:|--------|--------|--------|--------||--------|--------|--------|--------||
D:|7-77-7--|--------|5-535535|--------||-------2|3-33-332|5-535535|--------||
A:|-------7|8-88-887|--------|5-55-555||0-00-03-|--------|--------|5-55-555||
E:|------8-|--------|--------|--------||--------|--------|--------|--------||


Outro x3
G:||--------|--------|--------|--------|--------|--------|--------|--------||
D:||7-77-7--|--------|5-535535|--------|-------2|3-33-332|5-535575|--------||
A:||-------7|8-88-887|--------|5-55-555|0-00-03-|--------|--------|5-55-555||
E:||------8-|--------|--------|--------|--------|--------|--------|--------||
Mari7
Posts: 190
Did JT make this song?
Hugorj
Posts: 306
That was exciting! All right, Sid. The sound perfectly works
Sidsquishus
Posts: 1034
Thank you Duran Duran Fan. I didn't realize that JT left Duran Duran for a period.

Good on you, Mari7, to recognize a different person behind the bass line. Did you check it?
Gerr
Posts: 175
Great tab, Sid!
Sidsquishus
Posts: 1034
Thank you for the checking, Hugorj and Gerr. Much appreciated. Tab submitted.
Mari7
Posts: 190
Sid, good job, as always. This request was old.

And I'm not certain about who bassist created ‘playing with uranium’: Cuccurullo or Wes Wehmiller (see http://en.wikipedia.org/wiki/Duran_Duran #Chapter 1997–2000: John Taylor departs).

Wehmiller's Biography (wiki): “When bassist John Taylor bowed out of Duran Duran in 1997, guitarist Warren Cuccurullo brought Wehmiller on board. Wehmiller toured and performed on television with the band until 2001, when Taylor reunited with the band. Afterwards he worked with Warren Cuccurullo, Missing Persons, and several other Los Angeles bands. In 2004, he played with Mike Keneally”.

Pictures: http://www.duranography.dk/interviews/wes_2001.php
Sidsquishus
Posts: 1034
Thank you for checking Uranium, Mari7.

There is also this information for bass performance on the Notorious album:

http://www.discogs.com/Duran-Duran-Notorious/master/87611

Discogs identifies JT as the bass player, with Cuccurullo on guitar, not bass, and Andy Taylor also on guitar.

If I am not mistaken, JT, Nick, and Simon are on the cover of the album, yes? If JT is on the cover, then I think he must be the one playing bass in the music.
Mari7
Posts: 190
Pop Trash album cover: Nick, Simon and Cuccurullo
Mari7
Posts: 190
I did not know this website, discogs.

Reply to this thread