0-9 A B C D E F G H I J K L M N O P Q R S T U V W X Y Z

Duran Duran Bass Tabs

Marko1960
Posts: 907
I'd just like to say, 3 more replies and this post has reached the magic 500
Marko1960
Posts: 907
If anyone's interested that is
Marko1960
Posts: 907
Just sayin is all
Marko1960
Posts: 907
And I know it has nothing to do with Duran Duran but there you go
bass freak
Posts: 305
Good work Danny & Sid.
Hugorj
Posts: 307
Quote:
Quote: ... Before the Rain... Now, just missing a small part... There is just the solo part. Hugorj, the section (solo )that is still missing - when does it start (minute: second,) when does it end? I will try to help so you can finish this song and submit a tab. Cheers.


Sid, the solo starts at 2'48“ until 3'24”. This version is more clear:


Sidsquishus
Posts: 1034
Hugorj, this is from the album (recorded) version but I think it is the same as the live version.

Part 1 - played twice at start of quiet section
Tabs:
G|----------------|
D|----------------|
A|----7>--5>------|
E|7>----------2>--|

Part 2 - vocal back in
Tabs:
G|----------------------------------|
D|----------------------------------|
A|----9>--9>----------10>-10----9-9-|
E|7>---------57>--7>-7------9>-9----|

G|---------------------------------------------|
D|---------------------------------------------|
A|----9>---9>-9----------10>-10----9-9-77777777|
E|7>-7---10----7>-710>-10------9>-9------------|

I think this is pretty close. I don't think I would call it a solo because the vocal comes back in for part 2. Maybe I would say Fill for part 1, then maybe verse reprise or something for part 2.

I hope that helps you to complete the tab of Before The Rain. Cheers.
softcell62
Posts: 400
Looking good Sid.
Excellent work as usual Sid.
mayhem
Posts: 246
I used to hate this band back in the 80's but over the years I have grown to respect them with what they have achieved. I can even name a couple of songs that i really like which surprises me!

Reply to this thread