0-9 A B C D E F G H I J K L M N O P Q R S T U V W X Y Z

Duran Duran Bass Tabs

Mari7
Posts: 206
Your version is fantastic Hugorj!!
DANNYBASSMAN93 [top submitter]
Posts: 510
What's that mari? Isn't it better if we all become facebook friends and make a group on Facebook a closed one oh and still working on it I've been busy with some night ranger and other tabs
Some work on Love Voodoo for checking. Cheers.

Tabs:
Intro x2
G:||----------------|----------------|----------------|----------------||
D:||----------------|----------------|----------------|----------------||
A:||------4-------4-|8---8-4---------|------4-------4-|8---8-4---------||
E:||6---6---66--6---|--------5-2-5-2-|6---6---66--6---|--------5-2-5-2-||
+ + + + + + + + + + + + + + + +

Verse
G:|----------------|----------------|----------------|----------------|
D:|----------------|----------------|----------------|----------------|
A:|------4-------4-|8---8-4---------|------4-------4-|8---8-4---------|
E:|6---6---66--6---|--------5-2-5-2-|6---6---66--6---|--------6---R---|
+ + + + + + + + + + + + + + + +
Hugorj
Posts: 343
Sid, what do you think?

Tabs:
G|--------------------------------------|
D|--------------------------------------|
A|----4------4-----6---------------------|
E|6-6---66-6---1-1-----------------------|
Hey Hugorj,
Good to hear you! Thanks for your help!

Your tab and mine for the main riff are pretty similar. Your F at E1 is an octave lower than my F A8; where you are dropping to the low F, I hear JT's bass climbing up to the higher F. Both work and make for variety in coming up with one's own bass line for the song. But what I hear is the bass going up to the higher F.

Also, where you have the Eb at A6, which would have a duration of half a measure, I hear the bass bouncing back and forth rather than holding steady at one note. I'm not sure I have it correct either. I will try playing your tab and mine, and try again to get this last bit of the main riff. Cheers.

Also, I think the song is in Bb minor (Bb, C, Db, Eb, F, Gb, Ab, Bb). If this is correct, than notes not in this scale would probably only be quick transition notes.
Hugorj
Posts: 343
Sid, please check my “What Happpens Tomorrow” version
Hi Hugorj,
I am traveling presently. I will check your tab when I get home. Cheers.
Mari7
Posts: 206
Any tab in progress?
Hi Mari7,
Perhaps you would do some checking on Love Voodoo - I am working on it when I have time. This is a work in progress. You will see where I have put other notes and question marks outside the measure - these are where I am still trying to decide what is correct. Your help would be appreciated. Cheers.

Tabs:
Intro x2
G:||----------------|----------------|----------------|----------------||
D:||----------------|----------------|----------------|----------------||
A:||------4-------4-|8---8-4---------|------4-------4-|8---8-4---------||
E:||6---6---66--6---|--------5-2-5-2-|6---6---66--6---|--------5-2-5-2-||?4141
+ + + + + + + + + + + + + + + +

Verse
G:|----------------|----------------|----------------|----------------|
D:|----------------|----------------|----------------|----------------|
A:|------4-------4-|8---8-4---------|------4-------4-|8---8-4---------|
E:|6---6---66--6---|--------5-2-5-2-|6---6---66--6---|--------6---R---|
+ + + + + + + + + + + + + + + +

Fill
G:|----------------|----------------|
D:|----------------|----------------|
A:|------4-------4-|8---8-4---------|
E:|6---6---66--6---|--------5-2-5-2-|
+ + + + + + + +

Verse 2
G:|----------------|----------------|----------------|----------------|
D:|----------------|----------------|----------------|----------------|
A:|------4-------4-|------4---------|------4-------4-|----------------|
E:|6---6---66--6---|1---1---5-2-5-2-|6---6---66--6---|1---R-----112-1-|?224-2
+ + + + + + + + + + + + + + + +

Fill
G:|----------------|----------------|
D:|----------------|----------------|
A:|------4-------4-|8---8-4---------|
E:|6---6---66--6---|--------5-2-5-2-|

Verse 3
G:|----------------|----------------|----------------|----------------|
D:|----------------|----------------|----------------|----------------|
A:|------4-------4-|8---8-4---------|------4-------4-|8---8-4---------|
E:|6---6---66--6---|--------5-2-5-2-|6---6---66--6---|--------5-2-5-2-|

Fill
G:|----------------|----------------|
D:|----------------|----------------|
A:|------4-------4-|8---8-4---------|
E:|6---6---66--6---|--------5-2-5-2-|

Chorus x2
G:||----------------|----------------|----------------|----------------||
D:||----------------|----------------|----------------|----------------||?2121
A:||------4-------4-|------4---------|------4-------4-|------4---------||?4141
E:||6---6---66--6---|1---1---5-2-5-2-|6---6---66--6---|1---1---5-2-5-2-||?4242
+ + + + + + + + + + + + + + + +

Intro Reprise
G:|----------------|----------------|----------------|----------------|
D:|----------------|----------------|----------------|----------------|
A:|------4-------4-|8---8-4---------|------4-------4-|8---8-4---------|
E:|6---6---66--6---|--------5-2-5-2-|6---6---66--6---|--------5-2-5-2-|

Verse 4
G:|----------------|----------------|----------------|----------------|
D:|----------------|----------------|----------------|----------------|
A:|------4-------4-|------4---------|------4-------4-|------4---------|
E:|6---6---66--6---|1---1---5-2-5-2-|6---6---66--6---|1---1---1---R---|?

Fill
G:|----------------|----------------|
D:|----------------|----------------|
A:|------4-------4-|8---8-4---------|
E:|6---6---66--6---|--------5-2-5-2-|
Hugorj,
I should have time to check your What Happens Tomorrow tab today. Cheers.

Reply to this thread