0-9 A B C D E F G H I J K L M N O P Q R S T U V W X Y Z

Duran Duran Bass Tabs

Mari7
Posts: 146
Boys, some progress?:
Sidsquishus
Posts: 858
I didn't have time to work on Love Voodoo this past weekend. Sorry. I will post somethings when I have something for you to check. Hopefully, soon! Cheers.
Hugorj
Posts: 269
John Taylor has posted news on your instagram (@thisistherealjt).

Hugorj
Posts: 269
I'm working on “What Happens Tomorrow” ver.2 now
Hugorj
Posts: 269
What Happens Tomorrow ver.2

verse 1
Tabs:
G|--------------------------------------|
D|--------------------------------------|
A|---------222-2------------------------| 6x
E|222-2000------222---------------------|

verse 2
Tabs:
G|----------------------------------------|
D|----------------------------------------|
A|------------------55555555--777-7575----|
E|55555555-11111111-----------------------|

Tabs:
G|----------------------------------------|
D|----------------------------------------|
A|------------------55555555--77777777----|
E|55555555-11111111-----------------------|

verse 3
Tabs:
G|--------------------------------------|
D|----5----5----7----7----9----9--------|
A|33----33---55---55---77---77----------|
E|--------------------------------1-----|

chorus
Tabs:
G|--------------------------------------|
D|--------------------------------------|
A|--------------------------------------| 4x
E|5555-3333-2222-3333-------------------|

verse 1

verse 2

verse 3

chorus

verse 2 with some variations

Tabs:
G|----------------------------------------|
D|----------------------------------------|
A|------------------55555555--777-7575----|
E|55555555-11111111-----------------------|

Tabs:
G|----------------------------------------|
D|----------------------------------------|
A|------------------55555555--777-7575-7-9|
E|55555555-11111111-----------------------|

Tabs:
G|----------------------------------------|
D|----------------------------------------|
A|------------------55555555--77777777----|
E|55555555-11111111-----------------------|

verse 3

chorus until the end
Hugorj
Posts: 269
Someone to check or help?
Gerr
Posts: 128
Cool Hugorj! I liked of your version!!
DANNYBASSMAN93 [top submitter]
Posts: 408
everything good here guys ?
Hugorj
Posts: 269
All good Dannybass. Have you had any progress with Playing with Uranium?
Mari7
Posts: 146
We should create a whatsapp group

Reply to this thread