0-9 A B C D E F G H I J K L M N O P Q R S T U V W X Y Z

Duran Duran Bass Tabs

Here's what I have of Chains so far - it's the intro, verse, and only the first bit of the chorus.

I've worked on Chains a bit more and have some changes to what I posted earlier. I've edited the tab to show these changes. Please check. Thanks!

Tabs:
Intro x3
G:|-----------------||----------------|----------------||
D:|-----------------||-7-7--7---7-7--7|5>--R-5-4>--R-4-||
A:|----R-------12\--||5----5-5-5----5-|----------------||
E:|-----------------||----------------|----------------||
+ + + + + + + + + + + +

G:|----------------|----------------| |----------------|----------------|
D:|-7-7--7---7-7--7|5>------7>------| |-7-7--7---7-7--7|5>------7>------|
A:|5----5-5-5----5-|----------------| |5----5-5-5----5-|----------------|
E:|----------------|----------------| |----------------|----------------|
+ + + + + + + + + + + + + + + +

Verse x3
G:||----------------|----------------||----------------|----------------|
D:||-7-7--7---7-7--7|5>--R-5-4>--R-4-||-7-7--7---7-7--7|5>------7>------|
A:||5----5-5-5----5-|----------------||5----5-5-5----5-|----------------|
E:||----------------|----------------||----------------|----------------|

G:|----------------|----------------|
D:|----------------|----------------|
A:|7>------------7-|7>--------------|
E:|----------------|----------------|
+ + + + + + + +

x3
G:||----------------|----------------||----------------|----------------|
D:||-7-7--7---7-7--7|5>--R-5-4>--R-4-||-7-7--7---7-7--7|5>--------------|
A:||5----5-5-5----5-|----------------||5----5-5-5----5-|--------5>------|
E:||----------------|----------------||----------------|----------------|

Chorus
G:|----9-------9---|------------7---|----9-------9---|------------7---|
D:|--9---9---9---9-|7---7-----7---7-|--9---9---9---9-|7---7-----7---7-|
A:|7-------7-------|--7---7-5-------|7-------7-------|--7---7-5-------|
E:|----------------|----------------|----------------|----------------|
+ + + + + + + + + + + + + + + +

G:|------------------------|----------------|----------------|----------------|
D:|----9-----9-----9-----9-|--7---7---7-----|----------------|----------------|
A:|1010--1010--1010--1010--|99--99--99--997-|5-5-5-5-5-5-5-5-|5-5-5-5-5-5-5>--|
E:|------------------------|----------------|----------------|----------------|
+ + + + + + + + + + + + + + + +
Sidsquishus
Posts: 1084
More work on Chains. Here's the latest iteration:

Tabs:
Intro x3
G:|-----------------||----------------|----------------||
D:|-----------------||-7-7--7--7-7--7-|5>--R-5-4>--R-4-||
A:|----R-------12\--||5----5-55----5--|----------------||
E:|-----------------||----------------|----------------||
+ + + + + + + + + + + +

G:|----------------|----------------|
D:|-7-7--7--7-7--7-|5>------7>------|
A:|5----5-55----5--|----------------|
E:|----------------|----------------|
+ + + + + + + +

Verse x3
G:||----------------|----------------||----------------|----------------|
D:||-7-7--7--7-7--7-|5>--R-5-4>--R-4-||-7-7--7--7-7--7-|5>------7>------|
A:||5----5-55----5--|----------------||5----5-55----5--|----------------|
E:||----------------|----------------||----------------|----------------|

G:|----------------|----------------|
D:|----------------|----------------|
A:|7>------------7-|7>--------------|
E:|----------------|----------------|
+ + + + + + + +

x3
G:||----------------|----------------||----------------|----------------|
D:||-7-7--7--7-7--7-|5>--R-5-4>--R-4-||-7-7--7--7-7--7-|5>--------------|
A:||5----5-55----5--|----------------||5----5-55----5--|--------5>------|
E:||----------------|----------------||----------------|----------------|

Chorus
G:|----9-------9---|------------7---|----9-------9---|------------7---|
D:|--9---9---9---9-|7---7-----7---7-|--9---9---9---9-|7---7-----7---7-|
A:|7-------7-------|--7---7-5-------|7-------7-------|--7---7-5-------|
E:|----------------|----------------|----------------|----------------|
+ + + + + + + + + + + + + + + +

G:|------------------------|----------------|----------------|----------------|
D:|----9-----9-----9-----9-|--7---7---7-----|----------------|----------------|
A:|1010--1010--1010--1010--|99--99--99--997-|5-5-5-5-5-5-5-5-|5-5-5-5-5-5-5>--|
E:|------------------------|----------------|----------------|----------------|
+ + + + + + + + + + + + + + + +

Verse 2 x5
G:||----------------|----------------||----------------|----------------|
D:||-7-7--7--7-7--7-|5>--R-5-4>--R-4-||-7-7--7--7-7--7-|5>------7>------|
A:||5----5-55----5--|----------------||5----5-55----5--|----------------|
E:||----------------|----------------||----------------|----------------|

x3
G:||----------------|----------------||----------------|----------------|
D:||-7-7--7--7-7--7-|5>--R-5-4>--R-4-||-7-7--7--7-7--7-|5>--------------|
A:||5----5-55----5--|----------------||5----5-55----5--|--------5>------|
E:||----------------|----------------||----------------|----------------|

Chorus
G:|----9-------9---|------------7---|----9-------9---|------------7---|
D:|--9---9---9---9-|7---7-----7---7-|--9---9---9---9-|7---7-----7---7-|
A:|7-------7-------|--7---7-5-------|7-------7-------|--7---7-5-------|
E:|----------------|----------------|----------------|----------------|

G:|------------------------|----------------|----------------|----------------|
D:|----9-----9-----9-----9-|--7---7---7-----|----------------|----------------|
A:|1010--1010--1010--1010--|99--99--99--997-|5-5-5-5-5-5-5-5-|5-5-5-5-5-5-5>--|
E:|------------------------|----------------|----------------|----------------|

Verse 2 Reprise x4
G:||----------------|----------------||
D:||-7-7--7--7-7--7-|5>--R-5-4>--R-4-||
A:||5----5-55----5--|----------------||
E:||----------------|----------------||

Breakdown
G:|----------------|----------------|----------------|----------------|
D:|----------------|----------------|----------------|----------------|
A:|4-4-4-4-4-4-4-4-|3-3-3-3-3-3-3-3-|----------------|----------------|
E:|----------------|----------------|5-5-5-5-5-5-5-5-|4-4-4-4-4-4-4-4-|

G:|----------------|----------------|----------------|----------------|
D:|----------------|----------------|4-4-4-4-4-4-4-4-|7-7-7-7-7-7-7-7-|
A:|----------------|5-5-5-5-5-5-5-5-|----------------|----------------|
E:|1-1-1-1-1-1-1-1-|----------------|----------------|----------------|

G:|----------------|----------------|----------------|----------------|
D:|7-7-7-7-7-7-7-7-|----------------|5-5-5-5-5-5-5-5-|----------------|
A:|----------------|----------------|----------------|----------------|
E:|----------------|5-5-5-5-5-5-5-5-|----------------|3-3-3-3-3-3-3-3-|

Fill?
G:|----------------|----------------|----------------|----------------|
D:|-7-7--7--7-7--7-|-7-7--7---------|-7-7--7--7-7--7-|5>------7>------|
A:|5----5-55----5-5|5----5-5565-----|5----5-55----5--|----------------|
E:|----------------|----------------|----------------|----------------|
+ + + + + + + + + + + + + + + +

Not sure I've measures 10 and 12 right in the breakdown, and the second measure of the fill is probably not right. Anyone out there to check?
Hugorj
Posts: 330
1st part checked. I'll check the second part soon
Hugorj
Posts: 330
Chains. My verses interpretation

Tabs:
G|---------------------7----6-----------|
D|---7---7----7---7--5--5-4-------------|
A|55---5---55---5-----------------------|
E|--------------------------------------|


I agree with the other parties
Sidsquishus
Posts: 1084
Thanks Hugorj. I'll check out your version of the verse. Cheers.
Hugorj
Posts: 330
Dannybass, some novelty in Playing with Uranium?
DANNYBASSMAN93 [top submitter]
Posts: 510
hey guys sorry its been taking me awhile ive been busy with some research and building projects ive been working with but ive gotten back to the duran duran tabs and ive posted DURAN DURAN - BREATH AFTER BREATH you can llok into it and let me know what you think of it and if theres anything else you need let me know
johnny [staff]
Posts: 639
i've added it!
Hugorj
Posts: 330
DANNYBASSMAN93, Nice work on Breath after Breath !! I played it 3 times. Congratulations
DANNYBASSMAN93 [top submitter]
Posts: 510
well thnk you sir most appreciated

Reply to this thread