0-9 A B C D E F G H I J K L M N O P Q R S T U V W X Y Z

Duran Duran Bass Tabs

softcell62
Posts: 381
Hey bassm99, what is the ending part you said was missing from Secret Oktober? Your tab is excellent as far as i'm concerned.
Gerr
Posts: 128
Nice bassm99!
Updating the list of requests:

Duran Duran - Breath after Breath (a better version than the link)

Duran Duran - Chains

Duran Duran - Eletric Barbarella

Duran Duran - Land

Duran Duran - The Valley

Hugorj
Posts: 273
Updating…(with your permission Gerr)

Duran Duran - Breath after Breath (a better version than the link)

Duran Duran - Chains

Duran Duran - Eletric Barbarella

Duran Duran - Land

Duran Duran - The Valley

Duran Duran - Playing With Uranium

Duran Duran - Like an Angel
Nice list of Duran Duran songs Hugorj & Gerr. Good to see these tabbed at some point in the future. Liking the Secret Oktober tab bassm99, one of my faves!
Mari7
Posts: 148
Excellent list boys! Add Love Voodoo!
Hugorj
Posts: 273
More: Box Full O' Honey
Sidsquishus
Posts: 863
Please check for intro to Land. Thanks.

Tabs:
Intro
G:|----|--------|--------|--------|--------|--------|--------|--------|
D:|----|5>------|3>------|--------|----3>--|5>----4-|3>------|--------|
A:|-R--|--------|--------|3>------|6>------|--------|--------|3>------|
E:|----|--------|--------|--------|--------|--------|--------|--------|
+ + + + + + + + + + + + + + + + + + + + + + + + + + + + + +

x4
G:|--------|--------||--------|--------||
D:|----3>--|--------||-5--5---|5-------||
A:|6>------|3>------||--65----|-653----||
E:|--------|-------3||3-------|------33||
+ + + + + + + + + + + + + + + +
Gerr
Posts: 128
Good Sid!
Sidsquishus
Posts: 863
Thanks for checking it. I wasn't sure it was right so I appreciate your feedback. I hope to get a verse (should be easy) and a chorus this weekend. Cheers.
Sidsquishus
Posts: 863
I think I have the main riff (last two measures) wrong in the previous tab for Land. I think this is what it should be:

Tabs:
x4
G:||--------|--------||
D:||-53-5---|53------||
A:||---6----|--65----||
E:||3-------|------33||
+ + + + + + + +

Does that sound better?

Reply to this thread