0-9 A B C D E F G H I J K L M N O P Q R S T U V W X Y Z

Duran Duran Bass Tabs

Love Duran Duran! Excellent tabbing by all concerned!
Mari7
Posts: 200
Hey all! New missions in my requests
Hugorj
Posts: 330
I returned from vacation…

I submitted All You Need is Now tab!

Great requests Mari… Great songs!

I checked again the work of Sid in Pop Trash Movie. Wonderful!
I wanted to let everyone know that my time here on Big Bass Tabs will be quite a bit less than it has been. For the next 10 to 12 weeks, my work schedule will be very busy and I will probably only have time to work on tabs one or two evenings per week.

I will help with tabs when I can, but due to my limited time, you will wait a long time if you wait for me to tab our Duran Duran “missions”. I hope all of you will pitch in and help tab songs! I will help and check as I can, but you shouldn't wait for me. Cheers.
Damn you work!!!! We shall see you when we see you Sid.
Mari7
Posts: 200
Only two persons make tab in this topic: Sid and Hugorj. I do not know tab, then I check. The topic needs the cooperation of all who use it.
Sid, thanks for all the dedication until now! Your cooperation is very valuable ever!

johnny [staff]
Posts: 643
Thanks for the great tabs so far, Sid! They really are of the best quality and all deserve a 5 star rating just for the nice formatting.
I agree best looking tabs online!
Thanks to all for the kind words.

Mari7: if you can check a tab, you can create a tab - you have the ear to tell when a note is right or wrong. I encourage you to start tabbing a song you like. No hurry. No need to share. Just try. Maybe something “not so hard” - slow tempo, simple bass line of mostly root notes, like Edge of America or Pop Trash Movie. I started this way and my first tabs were not so good. But with practice, you get better.

Hugorj, keep at it my friend. Looking forward to your Girl Panic! tab.
Cheers.
Hugorj - I listened to All You Need Is Now and played your tab. I like the song, maybe I will have to buy the album since I am now liking so many songs from it!

I get something a bit different for a tab. See what you think:

Tabs:
Verse 1
G:|--------|--------|--------|--------|--------|--------|--------|--------|
D:|5555----|--------|5555----|--------|5555----|--------|5555----|------5/|
A:|--------|--------|--------|--------|--------|--------|--------|--------|
E:|--------|3-13----|--------|3-13----|--------|3-13----|--------|3-13----|
+ + + + + + + + + + + + + + + + + + + + + + + + + + + + + + + +

G:|--------|--------|--------|--------|--------|8888>---|--------|--------|
D:|8888>---|--------|5555!---|5555!-5/|8888>---|--------|5555!---|5535!---|
A:|--------|6666>---|--------|--------|--------|--------|--------|--------|
E:|--------|--------|--------|--------|--------|--------|--------|--------|
+ + + + + + + + + + + + + + + + + + + + + + + + + + + + + + + +

G:|--------|--------|
D:|5535!---|5535!---|
A:|--------|--------|
E:|--------|--------|
+ + + + + + + +

Chorus x2
G:||--------|--------|--------|--------|--------|--------|--------|--------||
D:||--------|--------|--------|55555555|--------|--------|--------|55555555||
A:||3-33-333|3-33-333|6666-666|--------|3-33-333|3-33-333|6666-666|--------||
E:||--------|--------|--------|--------|--------|--------|--------|--------||
+ + + + + + + + + + + + + + + + + + + + + + + + + + + + + + + +

Fill
G:|--------|--------|--------|--------|
D:|55-5----|5--5----|55-5----|5--5----|
A:|--------|--------|--------|--------|
E:|------6\|------6\|------6\|------6\| (slide down to E3 then jump up to D5)
+ + + + + + + + + + + + + + + +

Verse 2
G:|--------|--------|--------|--------|--------|--------|--------|--------|
D:|5555----|--------|5555----|--------|5555----|--------|5555----|------5/|
A:|--------|--------|--------|--------|--------|--------|--------|--------|
E:|------6\|3-13----|------6\|3-13----|------6\|3-13----|------6\|3-13----|
+ + + + + + + + + + + + + + + + + + + + + + + + + + + + + + + +

G:|--------|--------|--------|--------|--------|8888>---|--------|--------|
D:|8888>---|--------|5555!---|5555!-5/|8888>---|--------|5555!---|5535!---|
A:|--------|6666>---|--------|--------|--------|--------|--------|--------|
E:|--------|--------|--------|--------|--------|--------|--------|--------|
+ + + + + + + + + + + + + + + + + + + + + + + + + + + + + + + +

G:|--------|--------|
D:|5535!---|5535!---|
A:|--------|--------|
E:|--------|--------|
+ + + + + + + +

Chorus Reprise x2
G:||--------|--------|--------|--------|--------|--------|--------|--------||
D:||--------|--------|--------|55555555|--------|--------|--------|555553--||
A:||3-33-333|3-33-333|6666-666|--------|3-33-333|3-33-333|6666-666|------65||
E:||--------|--------|--------|--------|--------|--------|--------|--------||

Comments & corrections welcome. cheers.

Reply to this thread