0-9 A B C D E F G H I J K L M N O P Q R S T U V W X Y Z

Duran Duran Bass Tabs

Hugorj
Posts: 334
Great Sid! You nailed it again
Thanks for checking it, Hugorj. I should have time tomorrow to work on it again, so I should have more posted sometime tomorrow. Cheers.
Mari7
Posts: 203
Your version is great. Thank you!
Thanks for checking, Mari7.
So here's the rest of Pop Trash Movie as I have it. I'm pretty confident, given earlier feedback, that it is correct, so I have submitted the complete tab. Any corrections, let me know. Cheers.

Tabs:
Verse 4
G:|--------|--------|--------|--------|--------|5>----5-|--------|
D:|--------|8>-8>-78|--------|7>-7>--7|3>----53|----35-5|3>-3>-33|
A:|5>-5>--5|--------|8>-8>---|------7-|--------|--------|--------|
E:|------5-|--------|--------|--------|--------|--------|--------|

Intro Reprise
G:|--------|--------|--------|--------|--------|--------|--------|--------|
D:|7>-7>--7|6>-6>-8-|5>-----\|2>-22--0|5>-----\|2>----35|--------|--------|
A:|------7-|--------|--------|--------|--------|--------|5>-55>--|3>-33>--|
E:|--------|--------|--------|--------|--------|--------|--------|--------|

G:|--------|-----------|
D:|--------|-----------|
A:|--------|7>-/141414\|
E:|5>-55>--|-----------|

Chorus Reprise II x4
G:|--------|--------|--------|--------|--------|--------||--------|--------||
D:|3>------|5>--5---|3>------|5>--7>-\|3>------|5>------||3>------|--------||
A:|----3>--|-----75>|----3>--|--------|----3>--|----5>--||----3>--|5555555\||
E:|--------|--------|--------|--------|--------|--------||--------|--------||

Chorus Reprise III
G:|--------|--------|--------|--------|--------|--------|--------|7-7-7-7-|
D:|3>------|5>--5---|3>------|5>--7>-\|3>------|5>------|3>------|-7-7-7-7|
A:|----3>--|-----75>|----3>--|--------|----3>--|----5>--|----3>--|--------|
E:|--------|--------|--------|--------|--------|--------|--------|--------|

Outro x2
G:||--------|--------|--------|--------|--------|--------|--------|--------||
D:||3>33----|5>55----|3>33----|5>55777\|3>33----|5>55----|3>33----|--------||
A:||----3>33|----5>55|----3>33|--------|----3>33|----5>55|----3>33|5555555\||
E:||--------|--------|--------|--------|--------|--------|--------|--------||
Gerr
Posts: 186
always great Sid!!
Excellent Sid
Quote:
I need to organise Girl Panic! tab. It's ready

Hugorj, have you submitted a tab for Girl Panic! yet? I don't see it in the Duran Duran tabs.
Hugorj
Posts: 334
Hi Sid, I'm travelling on vacation now, and I'm away from my PC.. (girl panic tab isn't in my iphone unfortunately).
When I return I'll post All you Need is Now and Girl Panic!
Cheers
Excellent! Enjoy your travels!

Reply to this thread