0-9 A B C D E F G H I J K L M N O P Q R S T U V W X Y Z

Duran Duran Bass Tabs

I like Pop Trash Movie. I will tab it, if Mari7 or Gerr or Duran Duran Fan doesn't, when I get home in a week.

And tab sites go down (or remove their tabs) regularly in response to threatening letters from the recording industry. I don't believe learning (tabbing) a song for noncommercial use, especially when learned in hopes of learning how to play bass better, is a copyright violation. But there are those in the music industry who do.
Hugorj
Posts: 330
Great Sid!!! I'll help you
Gerr
Posts: 183
Who saw the songbook of Duran Duran? I think that Simon do not care about copyright, but John Taylor yes(he even joked about it).
See Songbook part 2 (I think that youtube have)
Gerr
Posts: 183
Hugorj or Slaminger or Sid will try to get the name of the songs with Nick?
Hey all,
Please check this for the Pop Trash Movie intro. I'm not sure about measure 5; pretty sure the others are good. Corrections welcome.


Tabs:
Intro
G:|--------|--------|--------|--------|--------|--------|
D:|7>-7>--7|6>-6>---|5>------|--------|5>-57-5-|--------|
A:|------7-|--------|--------|7>-----8|--------|7>----57|
E:|--------|--------|--------|--------|--------|--------|
+ + + + + + + + + + + + + + + + + + + + + + + +
After this, Simon comes in with verse 1. Cheers.
sounds pretty good to me sid
anyone have a bass tab for My Own Way (Night Version)????
Thanks slamingerrrrr. I hope to get to the first iterations of verse and chorus today. Cheers.
Quote:
anyone have a bass tab for My Own Way (Night Version)????

There are guitar, chord, ukele, and bass tabs for this song at ultimate-guitar.com; I used duran duran my own way as the search query. The bass tab looks good from a first glance. This is the version on the Rio album, however. Is that different from the Night Version? If so, perhaps they are similar enough that you can use the Rio tab to make the one you want.
Cheers.
Pop Trash Movie: here is what I have for verses 1 & 2, the first chorus, verse 3, and the chorus reprise/bridge that follow the intro (see earlier post for the intro). If it seems wrong, please let me know.

Tabs:
Verse 1
G:|--------|--------|--------|--------|--------|--------|--------|--------|
D:|5>-5>-54|--------|5>-5>-5-|--------|--------|---5>---|---7>--\|--------|
A:|--------|7>-7>--5|--------|7>-7>-76|5>-5>---|3>------|--------|7>----57|
E:|--------|--------|--------|--------|--------|--------|5>------|--------|
+ + + + + + + + + + + + + + + + + + + + + + + + + + + + + + + +

Verse 2 (fourteens)
G:|--------|--------|--------|--------|--------|--------|--------|-----------|
D:|5>-5>-54|--------|5>-5>-5\|2>-2>---|--------|--------|--------|-----------|
A:|--------|7>-7>--5|--------|--------|5>-55>--|3>-33>--|--------|7>-/141414\|
E:|--------|--------|--------|--------|--------|--------|5>-55>--|-----------|

Chorus
G:|--------|--------|--------|--------|--------|--------|--------|--------|
D:|3>------|5>--5---|3>------|5>--7>-\|3>------|5>------|3>------|--------|
A:|----3>--|-----75>|----3>--|--------|----3>--|----5>--|----3>--|5555555\|
E:|--------|--------|--------|--------|--------|--------|--------|--------|
+ + + + + + + + + + + + + + + + + + + + + + + + + + + + + + + +

Verse 3
G:|--------|--------|--------|--------|--------|--------|--------|-----------|
D:|5>-5>-54|--------|5>-5>---|--------|--------|--------|---7>--\|-----------|
A:|--------|7>-7>--5|--------|7>-7>-76|5>-5>---|3>-3>---|--------|7>-/141414\|
E:|--------|--------|--------|--------|--------|--------|5>------|-----------|

Chorus Reprise
G:|--------|--------|--------|--------|--------|--------|--------|--7-5---|
D:|3>------|5>--5---|3>------|5>--7>-\|3>------|5>------|3>------|------7-|
A:|----3>--|-----75>|----3>--|--------|----3>--|----5>--|----3>--|5-------|
E:|--------|--------|--------|--------|--------|--------|--------|--------|
+ + + + + + + + + + + + + + + + + + + + + + + + + + + + + + + +

G:|--------|
D:|675-----|
A:|----787-|
E:|--------|
+ + + +

Next is another verse-like thing, perhaps in a different key.

Reply to this thread