0-9 A B C D E F G H I J K L M N O P Q R S T U V W X Y Z

Duran Duran Bass Tabs

Hi Hugorj,
The root notes are not a problem (see below). It is everything that happens between each root note being played that is difficult. Also I am trying to tab from UTube sound, so not as good as having the CD to listen to. Also, John is playing in a slap style, which I cannot do worth shit.

From one of my earlier postings in this thread:

There are four counts (1&2&&4& to each measure (4/4 time signature).

There are two parts to the verse.
For part 1 (starts about 03) the root notes each get 2 measures (8 counts). I think the root notes are:
F#(E2) B(A2) D(A5) B(A2)
F#(D4) B(A2) D(A5) B(A2)

There is more played than just the root note during each two measure segment, but I don't know what.

For part 2 (starts at about 1:11) the root notes are:
A(A0) C#(A4) F#(E2) B(A2)
A(A0) C#(A4) F#(D4)
Each root note gets 1 measure (4 counts) except the last F# which carries for two measures (8 counts). As in part 1, there is more played than just the root notes. The very last measure turns around back to the intro/chorus.

See also: http://tabs.ultimate-guitar.com/d/duran_duran/girl_panic_crd.htm
This is a tab of the guitar chords, which are same as the root notes for bass. You can see on the tab the lyric and the root note.
Cheers.
Gerr
Posts: 188
Man I think the tab that Hugorj post is correct! Check what he posted Sid
Thanks Gerr. I will try to check it today. Have you had any luck trying to figure out the verse?
Gerr
Posts: 188
I had no luck with that dude. But Hugorj is right in this part.

Hugorj you're on the right track
Hugorj
Posts: 335
So I will continue this line
Yes, I think you are doing a better job than you give yourself credit for. Gerr has endorsed your work heartily. Go, Hugorj, go!
Hugorj
Posts: 335
I think I got the mechanism of music. I will work hard to have news in the next days
No hurry, Hugorj. Keep it fun. Go as fast or as slow as you wish. The important part is to enjoy what you are doing.
Cheers.
Hey all,
I'll be traveling the next two weeks. I'll drop in when possible, but it won't be everyday.
Cheers.
Hugorj
Posts: 335
Tabs:
G|--------------------------------------|
D|4-4---2-2-----------------------------|
A|----4----2--5-5---4-4-----------------|
E|----------------5----4----------------|

Tabs:
G|--------------------4--6--------------|
D|--------------------------------------|
A|2-2-2---2---2-2-0-2--4----------------|
E|------2--2----------------------------|

Tabs:
G|--------------------------------------|
D|--------------------------------------|
A|5-5-5-0-5-0-5-5-5-55-44---------------|
E|--------------------------------------|

Tabs:
G|--------------------4--6--------------|
D|--------------------------------------|
A|2-2-2---2---2-2-0-2--4----------------|
E|------2--2----------------------------|

Tabs:
G|------------------------------------------|
D|------------------------------------------|
A|2-2-2-2--00--0---0---4-4-4--4--4----------|
E|-----2-2----0--0--0--------4--4--4--------|

Tabs:
G|--------------------------------------|
D|4-4---4---4------------4-4---4--------|
A|----4---4--4--2-2--2-------4--4-------|
E|------------------2-2-----------------|


Guys, this is what I got. I Take this opportunity to thank my friend who helped me (jjoe - not registered here).
Feel free to make changes, there must be errors in the tab.

Reply to this thread