0-9 A B C D E F G H I J K L M N O P Q R S T U V W X Y Z

Duran Duran Bass Tabs

TheDude [staff]
Posts: 175
i gotta say, you guys are kicking ass.

or at the very least, prodding buttock.
Hugorj
Posts: 269
Thanks guys. This site is great: simply the best!
Gerr
Posts: 128
News about Girl Panic?
Sidsquishus
Posts: 859
Not Girl Panic!, but here's what I have for the second verse of Too Late Marlene. Feedback would be appreciated. Cheers.

Tabs:
Verse 2
G:|--------|--------|--------|--------|--------|--------|--------|--------|
D:|--------|--------|--------|--------|--------|--------|--------|--------|
A:|-----7--|--------|-----7--|--------|-----7--|--------|-----7--|--------|
E:|5--55--5|5---5553|5--55--5|5---5553|5--55--5|5---5553|5--55--5|5---5553|

G:|--------|--------|--------|--------|--------|--------|--------|--------|
D:|--------|--------|--------|--------|--------|--------|--------|--------|
A:|-----7--|--------|-----7--|--------|-----7--|--------|-----7--|---05550|
E:|5--55--5|5---5553|5--55--5|5---5553|5--55--5|5---5553|5--55--5|513-----|
Hugorj
Posts: 269
Good tab Sid. Now, it is complete
Mari7
Posts: 146
Very nice Sid!!
Sidsquishus
Posts: 859
Thanks Hugorj and Mari7. I'm working on finishing this tab - perhaps today or tomorrow. After verse 2 (above post), there's a chorus reprise, a piano solo, a saxophone solo, and then chorus repeats (I think) to the end of the song. I'm working on the sax solo, so once I have that, the rest should be pretty quick (if it is just chorus repeats). Cheers.
Sidsquishus
Posts: 859
Here's what I have for the chorus reprise, piano solo, and sax solo that follow verse 2 of Too Late Marlene. Please check. Thanks.

Tabs:
Chorus Reprise
G:|--------|--------|--------|--------|--------|--------|--------|--------|
D:|--------|--------|--------|--------|--------|--------|--------|--------|
A:|5--55--5|5-000550|5--55--5|5-000550|5--55--5|5-000550|5-235--5|5-----57|
E:|-----3>-|-3------|-----3>-|-3------|-----3>-|-3------|-----3>-|---556--|

G:|--------|--------|--------|--------|--------|--------|
D:|7--77--7|7---777-|7--77--7|7---777-|--------|--------|
A:|--------|--------|--------|--------|--------|5----55-|
E:|--------|--------|--------|--------|1235-357|----7--3|

G:|--------|--------|--------|--------|--------|--------|--------|--------|
D:|7--77--7|7---777-|7--77--7|7---777-|7--77---|--------|--------|--------|
A:|--------|--------|--------|--------|-------5|5---555-|--------|--------|
E:|--------|--------|--------|--------|--------|--------|1--33--5|5---555-|

Piano Solo
G:|--------|--------|--------|--------|--------|--------|--------|--------|
D:|53-553-5|53-355>-|53-553-5|53-355>-|53-553-5|53-355>-|53-553-5|53-35535|
A:|--5---5-|--5-----|--5---5-|--5-----|--5---5-|--5-----|--5---5-|--5-----|
E:|--------|--------|--------|--------|--------|--------|--------|--------|

Saxophone Solo
G:|--------|--------|--------|--------|--------|--------|--------|--------|
D:|--777--7|7----77-|--777--7|7----77-|--777--7|7----77-|--777--7|7----77-|
A:|-----5>-|-5888--5|>----5>-|-5888--5|>----5>-|-5888--5|>----5>-|-5888--5|
E:|--------|--------|--------|--------|--------|--------|--------|--------|
Hugorj
Posts: 269
This is great Sid
Gerr
Posts: 128
I played the whole song Sid, it was perfect.

Reply to this thread