0-9 A B C D E F G H I J K L M N O P Q R S T U V W X Y Z

Duran Duran Bass Tabs

Gerr
Posts: 186
1001.

It's OK Sid. I liked!
Sidsquishus
Posts: 1101
Thank you gerr. perhaps I can finish this song tomorrow. Cheers.
Mari7
Posts: 203
Amazing!!
Sidsquishus
Posts: 1101
Here's what I have for the rest of Like Angel. Please check. Cheers.

Tabs:
Instrumental x3
G:||------------4---|------------4---||----------------|----------------|
D:||------7>--------|-----4>---------||5>--4-5>--5-5-4-|5-5-5-4-5-5-5-4-|
A:||5>--------------|2>--------------||----------------|----------------|
E:||----------------|----------------||----------------|----------------|
1 & 2 & 3 & 4 & 1 & 2 & 3 & 4 & 1 & 2 & 3 & 4 & 1 & 2 & 3 & 4 &

Whistling bit x3
G:||------------4---|------------4---||----------------|----------------|
D:||------7>--------|------4>--------||5>--5-5---5-5-4-|5-5-5-4-5-5-5-4-|
A:||5>--------------|2>--------------||----------------|----------------|
E:||----------------|----------------||----------------|----------------|
1 & 2 & 3 & 4 & 1 & 2 & 3 & 4 & 1 & 2 & 3 & 4 & 1 & 2 & 3 & 4 &

Verse 3
G:|----------------|----------------|----------------|----------------|
D:|----------------|----------------|----------------|----------------|
A:|2>----2---2---2-|2>----2-------0-|2>----2---2---2-|2>----2-------0-|
E:|----------------|----------223---|----------------|----------223---|
1 & 2 & 3 & 4 & 1 & 2 & 3 & 4 & 1 & 2 & 3 & 4 & 1 & 2 & 3 & 4 &

G:|----------------|----------------|----------------|----------------|
D:|----------------|----------------|2>----2---2---2-|2---------------|
A:|2>----2---2---2-|2>----2-----0-2-|----------------|--3---3---3---2-|
E:|----------------|----------22----|----------------|----------------|
1 & 2 & 3 & 4 & 1 & 2 & 3 & 4 & 1 & 2 & 3 & 4 & 1 & 2 & 3 & 4 &

G:|----------------|----------------|----------------|----------------|
D:|----------------|----------------|----------------|----------------|
A:|2>----2---2---2-|2>----2-------0-|2>----2---2---2-|2>----2-------0-|
E:|----------------|----------223---|----------------|----------223---|
1 & 2 & 3 & 4 & 1 & 2 & 3 & 4 & 1 & 2 & 3 & 4 & 1 & 2 & 3 & 4 &

G:|----------------|----------------|----------------|----------------|
D:|----------------|----------------|2>----2---2---2-|2>----2-2-2-2-2-|
A:|2>----2---2---2-|2>----2-----0-2-|----------------|----------------|
E:|----------------|----------22----|----------------|----------------|
1 & 2 & 3 & 4 & 1 & 2 & 3 & 4 & 1 & 2 & 3 & 4 & 1 & 2 & 3 & 4 &

Chorus x3
G:||------2-----2---|----------------|----------------|----------------||
D:||4---------4---4-|------1-----1---|------3-----3---|4-4-4-6>--7-7-7-||
A:||----------------|2---------2---2-|5---------5---5-|----------------||
E:||----------------|----------------|----------------|----------------||
1 & 2 & 3 & 4 & 1 & 2 & 3 & 4 & 1 & 2 & 3 & 4 & 1 & 2 & 3 & 4 &

G:|------2-----2---|----------------|----------------|----------------|
D:|4---4-----4---4-|------1-----1---|------3-----3---|4-4-4-4>--7-7-7-|
A:|----------------|2---------2---2-|5---------5---5-|----------------|
E:|----------------|----------------|----------------|----------------|
1 & 2 & 3 & 4 & 1 & 2 & 3 & 4 & 1 & 2 & 3 & 4 & 1 & 2 & 3 & 4 &

Outro x5 (until fade)
G:||------2-----2---|----------------|----------------|----------------||
D:||4---------4---4-|------1-----1---|------3-----3---|4-4-4-6>--7-7-7-||
A:||----------------|2---------2---2-|5---------5---5-|----------------||
E:||----------------|----------------|----------------|----------------||
1 & 2 & 3 & 4 & 1 & 2 & 3 & 4 & 1 & 2 & 3 & 4 & 1 & 2 & 3 & 4 &
Gerr
Posts: 186
Very good, as always
Ezzo
Posts: 86
I'm trying to play “hold back the rain”. It is a beautiful sound. My problem is the speed of the chorus. Some secret Hugorj, Mari, Sid?
Hugorj
Posts: 332
Well done, Sid!!
Hugorj
Posts: 332
Quote:
I'm trying to play “hold back the rain”. It is a beautiful sound. My problem is the speed of the chorus. Some secret Hugorj, Mari, Sid?


Pratice, Ezzo.. play it several times
Ezzo
Posts: 86
I miss Danny and Slam here ..
Sadly I don't..

Reply to this thread