0-9 A B C D E F G H I J K L M N O P Q R S T U V W X Y Z

Duran Duran Bass Tabs

Gerr
Posts: 183
Good Sid!
Sidsquishus
Posts: 1084
Thanks all! Very sorry that I am so slow with new info/tabs for this thread but I am only managing a few hours per week for bass currently. Real life intrudes so thoughtlessly!

This came out of discussions between Hugorj and I sometime ago, and may have already been posted in this thread, but here it is any way: Ezzo - here is a riff that JT plays at the end of a live version of Notorious while Simon (as I recall) chatted up the audience. I like it.

Tabs:
G:|---||--7-------10---12-|--7-------4---5-||
D:|---||------------------|----------------||
A:|10\||5-----5-8---10----|5-----5-2---3---||
E:|---||------------------|----------------||
1 2 3 4 1 2 3 4
Ezzo
Posts: 84
Wow.. very nice riff!! Notorious live is magic and enjoyable version
jt4ever
Posts: 108
Nice tab for the live version of Khanada bassm99. I think I prefer this version rather than the b-side version. I really love that early Duran Duran live sound.
I'm with you jt4ever regarding the early live Duran Duran sound. It's great to listen back to those 1981 live versions. I'm looking forward to testing out the Khanada tab tonight, many thanks bassm99.
Mari7
Posts: 200
News on Like an Angel Sid?
Sidsquishus
Posts: 1084
I have the intro and first verse, working on the chorus. I hope to post this (intro-verse-chorus) this evening but it will depend on how much time I find for bass. Cheers.
Mari7
Posts: 200
Busy boy…
Sidsquishus
Posts: 1084
Like An Angel - intro through second chorus. Please check. Cheers.

Tabs:
Intro
G:|----------------|----------------|----------------|----------------|
D:|----------------|----------------|----------------|----------------|
A:|2>----2---2---2-|2>----2---2---2-|2>----2---2---2-|2>----2-------0-|
E:|----------------|----------------|----------------|----------223---|
1 & 2 & 3 & 4 & 1 & 2 & 3 & 4 & 1 & 2 & 3 & 4 & 1 & 2 & 3 & 4 &

G:|----------------|----------------|----------------|----------------|
D:|----------------|----------------|2>----2---2---2-|2---------------|
A:|2>----2---2---2-|2>----2-----0-2-|----------------|--3---3---3---2-|
E:|----------------|----------22----|----------------|----------------|
1 & 2 & 3 & 4 & 1 & 2 & 3 & 4 & 1 & 2 & 3 & 4 & 1 & 2 & 3 & 4 &

G:|----------------|----------------|----------------|----------------|
D:|----------------|----------------|----------------|----------------|
A:|2>----2---2---2-|2>----2-------0-|2>----2---2---2-|2>----2-------0-|
E:|----------------|----------223---|----------------|----------223---|
1 & 2 & 3 & 4 & 1 & 2 & 3 & 4 & 1 & 2 & 3 & 4 & 1 & 2 & 3 & 4 &

G:|----------------|----------------|----------------|----------------|
D:|----------------|----------------|2>----2---2---2-|2---------------|
A:|2>----2---2---2-|2>----2-----0-2-|----------------|--3---3---3---2-|
E:|----------------|----------22----|----------------|----------------|
1 & 2 & 3 & 4 & 1 & 2 & 3 & 4 & 1 & 2 & 3 & 4 & 1 & 2 & 3 & 4 &

Verse
G:|----------------|----------------|----------------|----------------|
D:|----------------|----------------|----------------|----------------|
A:|2>----2---2---2-|4-2---2---------|2>----2---2---2-|2>----2-------0-|
E:|----------------|----------2---2-|----------------|----------2-3---|
1 & 2 & 3 & 4 & 1 & 2 & 3 & 4 & 1 & 2 & 3 & 4 & 1 & 2 & 3 & 4 &

G:|----------------|----------------|------------9---|------------9\--|
D:|----------------|----------------|----------------|----------------|
A:|2>----2---2---2-|2>----2---2---2-|7>--7-7---7-----|7-7-7-7---7-----|
E:|----------------|----------------|----------------|----------------|
1 & 2 & 3 & 4 & 1 & 2 & 3 & 4 & 1 & 2 & 3 & 4 & 1 & 2 & 3 & 4 &

G:|----------------|----------------|----------------|----------------|
D:|----------------|----------------|----------------|----------------|
A:|2>----2---2---2-|2>----2-------0-|2>----2---2---2-|2>----2-------0-|
E:|----------------|----------223---|----------------|----------2-3---|
1 & 2 & 3 & 4 & 1 & 2 & 3 & 4 & 1 & 2 & 3 & 4 & 1 & 2 & 3 & 4 &

G:|----------------|----------------|------------9---|------------9\--|
D:|----------------|----------------|----------------|----------------|
A:|2>----2---2---2-|2>----2---2---2-|7>--7-7---7-----|7-7-7-7---7-----|
E:|----------------|----------------|----------------|----------------|
1 & 2 & 3 & 4 & 1 & 2 & 3 & 4 & 1 & 2 & 3 & 4 & 1 & 2 & 3 & 4 &

Chorus
G:|------2-----2---|----------------|----------------|----------------|
D:|4---------4---4-|------1-----1---|------3-----3---|4-4-4-6>--7-7-7-|
A:|----------------|22--------2---2-|5---------5---5-|----------------|
E:|----------------|----------------|----------------|----------------|
1 & 2 & 3 & 4 & 1 & 2 & 3 & 4 & 1 & 2 & 3 & 4 & 1 & 2 & 3 & 4 &

x2
G:||------2-----2---|----------------|----------------|----------------||
D:||4---------4---4-|------1-----1---|------3-----3---|4-4-4-6>--7-7-7-||
A:||----------------|2---------2---2-|5---------5---5-|----------------||
E:||----------------|----------------|----------------|----------------||
1 & 2 & 3 & 4 & 1 & 2 & 3 & 4 & 1 & 2 & 3 & 4 & 1 & 2 & 3 & 4 &

G:|------2-----2---|----------------|----------------|----------------|
D:|4---4-----4---4-|------1-----1---|------3-----3---|4-4-4-4>--7-7-7-|
A:|----------------|2---------2---2-|5---------5---5-|----------------|
E:|----------------|----------------|----------------|----------------|
1 & 2 & 3 & 4 & 1 & 2 & 3 & 4 & 1 & 2 & 3 & 4 & 1 & 2 & 3 & 4 &

Fill
G:|----------------|----------------|----------------|----------------|
D:|----------------|----------------|----------------|----------------|
A:|2>----2---2---2-|2>----2-------0-|2>----2---2---2-|2>----2-------0-|
E:|----------------|----------223---|----------------|----------223---|
1 & 2 & 3 & 4 & 1 & 2 & 3 & 4 & 1 & 2 & 3 & 4 & 1 & 2 & 3 & 4 &

G:|----------------|----------------|----------------|----------------|
D:|----------------|----------------|2>----2---2---2-|2---------------|
A:|2>----2---2---2-|2>----2-----0-2-|----------------|--3---3---3---2-|
E:|----------------|----------22----|----------------|----------------|
1 & 2 & 3 & 4 & 1 & 2 & 3 & 4 & 1 & 2 & 3 & 4 & 1 & 2 & 3 & 4 &

Verse
G:|----------------|----------------|----------------|----------------|
D:|----------------|----------------|----------------|----------------|
A:|2>----2---2---2-|4-2---2-------0-|2>----2---2---2-|2>----2-------0-|
E:|----------------|----------223---|----------------|----------223---|
1 & 2 & 3 & 4 & 1 & 2 & 3 & 4 & 1 & 2 & 3 & 4 & 1 & 2 & 3 & 4 &

G:|----------------|----------------|------------9---|------------9\--|
D:|----------------|----------------|----------------|----------------|
A:|2>----2---2---2-|2>----2---2---2-|7>--7-7---7-----|7-7-7-7---7-----|
E:|----------------|----------------|----------------|----------------|
1 & 2 & 3 & 4 & 1 & 2 & 3 & 4 & 1 & 2 & 3 & 4 & 1 & 2 & 3 & 4 &

G:|----------------|----------------|----------------|----------------|
D:|----------------|----------------|----------------|----------------|
A:|2>----2---2---2-|2>----2---------|2>----2---2---2-|2>----2-------0-|
E:|----------------|----------2-2-3-|----------------|----------2-3---|
1 & 2 & 3 & 4 & 1 & 2 & 3 & 4 & 1 & 2 & 3 & 4 & 1 & 2 & 3 & 4 &

G:|----------------|----------------|------------9---|------------9\--|
D:|----------------|----------------|----------------|----------------|
A:|2>----2---2---2-|2>----2---2---2-|7>--7-7---7-----|7-7-7-7---7-----|
E:|----------------|----------------|----------------|----------------|
1 & 2 & 3 & 4 & 1 & 2 & 3 & 4 & 1 & 2 & 3 & 4 & 1 & 2 & 3 & 4 &

Chorus
G:|------2-----2---|----------------|----------------|----------------|
D:|4---------4---4-|------1-----1---|------3-----3---|4-4-4-6>--7-7-7-|
A:|----------------|22--------2---2-|5---------5---5-|----------------|
E:|----------------|----------------|----------------|----------------|
1 & 2 & 3 & 4 & 1 & 2 & 3 & 4 & 1 & 2 & 3 & 4 & 1 & 2 & 3 & 4 &

x2
G:||------2-----2---|----------------|----------------|----------------||
D:||4---------4---4-|------1-----1---|------3-----3---|4-4-4-6>--7-7-7-||
A:||----------------|2---------2---2-|5---------5---5-|----------------||
E:||----------------|----------------|----------------|----------------||
1 & 2 & 3 & 4 & 1 & 2 & 3 & 4 & 1 & 2 & 3 & 4 & 1 & 2 & 3 & 4 &

G:|------2-----2---|----------------|----------------|----------------|
D:|4---4-----4---4-|------1-----1---|------3-----3---|4-4-4-4>--7-7-7-|
A:|----------------|2---------2---2-|5---------5---5-|----------------|
E:|----------------|----------------|----------------|----------------|
1 & 2 & 3 & 4 & 1 & 2 & 3 & 4 & 1 & 2 & 3 & 4 & 1 & 2 & 3 & 4 &
Ezzo
Posts: 84
1000st replie!!!! Congratulations DD bass tabs!!!!!


I'll try check it Sid

Reply to this thread