0-9 A B C D E F G H I J K L M N O P Q R S T U V W X Y Z

Tab request

blackie333
Posts: 23
Can anyone tab this for me? It's fairly simple, but the chorus has got me stumped. It's Luv cage by The Godz.

http://www.youtube.com/watch?v=rSovLcJ8Ug4
Anyone?
TheDude [staff]
Posts: 285
i'm sure someone will step up. have you submitted a request on the site?
MannyIII
Posts: 109
Hey blackie, i dont tab but the chorus sounds alot like rhe verse. Try a different octave. Good luck
MannyIII
Posts: 109
Ive got that song stuck in my head.
LoudLon [moderator]
Posts: 1489
Took a minute and gave it a look. Here's the first chorus; the rest you should be able to figure out based on it.

* = staccato
r = 8th note rest

Tabs:
G |-----------------|-----------------|-----------------|-----------------|
D |-----------------|-------------0-1-|-2*2-r-2-r-2-r-2-|-r-2-r-2-r-------|
A |-2*2-r-2-r-2-r-2-|-r-2-r-2-r-2-----|-----------------|-------------0-1-|
E |-----------------|-----------------|-----------------|-----------2-----|
1 & 2 & 3 & 4 & 1 & 2 & 3 & 4 & 1 & 2 & 3 & 4 & 1 & 2 & 3 & 4 &

G |-----------------|-----------------|-----------------|-----------------|
D |-----------------|-------------0-1-|-2*2-r-2-r-2-r-2-|-r-2-r-2-r-------|
A |-2*2-r-2-r-2-r-2-|-r-2-r-2-r-2-----|-----------------|---------------1-|
E |-----------------|-----------------|-----------------|-----------2-r---|
1 & 2 & 3 & 4 & 1 & 2 & 3 & 4 & 1 & 2 & 3 & 4 & 1 & 2 & 3 & 4 &
Thanks Lon…you're aces
LoudLon [moderator]
Posts: 1489
No problem.

Reply to this thread