0-9 A B C D E F G H I J K L M N O P Q R S T U V W X Y Z

Theme Songs — Alouette bass tabs

Song: Alouette
Tabbed by: dancinghobgoblin (a.k.a. hobby)
Standard Tuning: G,D,A,E
This song is really short and easy.

G|——————0—0————————0———
D|——1—3—————3—1—3——1—
A|——————————————————————1
E|———————————————————————

G|——————0—0————————0——
D|——1—3—————3—1—3———1
A|——————————————————————
E|———————————————————————

There you go bro! That's not so hard
now is it... PLUS it's all correctly tabbed!

Tablature player for this song:

Comments

i don't know why bbt dont publish my tab of this song… so, i'll share here:

1. Alouette, gentille alouette,
Tabs:
E|-------------------------------------------------|
A|--3--5--------5--3--5-----3--0-------------------|
D|--------2--2-----------2-------------------------|
G|-------------------------------------------------|


2. Alouette, je te plumerai.
Tabs:
E|-------------------------------------------------|
A|--3--5--------5--3--5-----3----------------------|
D|--------2--2-----------2-------------------------|
G|-------------------------------------------------|

3. Je te plumerai . Je te plumerai la .
Tabs:
E|-------------------------------------------------|
A|--------------------------------------5--3-------|
D|--2--2--2--2--2--3--5--5-----5--3--2-------------|
G|--------------------------2----------------------|

4. Et ! Et ! / Alouette! Alouette!
Tabs:
E|-------------------------------------------------|
A|-----------3--3--3-----------3--3--3-------------|
D|--5--5--5-----------5--5--5----------------------|
G|-------------------------------------------------|

5. A-a-a-ah
Tabs:
E|-------------------------------------------------|
A|-----------3-------------------------------------|
D|--5--3--2----------------------------------------|
G|-------------------------------------------------|

Parts are:
la tête, le bec, les yeux, le cou, les ailes, les pattes, la queue, le dos.

Part 4 (of tab):
first time: et la tête, et la tête
second time: et la bec, et la tête
third time: et les yeux, et le bec, et la tête.
..etc.

Post a comment