0-9 A B C D E F G H I J K L M N O P Q R S T U V W X Y Z

Monster Magnet — Space Lord (ver 2) bass tabs

this is the full song
you have to wait for the rest of the band

intro
|—————————————————————————————
|—————————————————————————————
|—————————————————————————————
|———0————0————0————0————0————0

verse
|—————————————————
|——————————————42—
|———4424———4424———
|———————020———————

heavy part
|————————
|——————42
|——4424——
|————————

Tablature player for this song:

Other versions of Space Lord

Comments

The first, and most important, piece of information is that this song is in standard-C tuning, like the guitars are: C-F-Bb-Eb.

Bass comes in just before the second verse:

Tabs:
Eb|----------------|----------------|
Bb|----------------|----------------|
F|----5-7---7-75--|----5-7---------|
C|0-00----------7-|0-00------5-3-3-|

And sing “uhhhhh”…

Tabs:
Eb|----------------|----------------|
Bb|----------------|----------------|
F|0-0-0-0---0-0-00|0-0-0-0---0-0-00|
C|----------------|----------------|

Back to the verse riff, then:

Chorus riff

I left my throne a million miles away…

Tabs:
Eb|----------------|----------------|
Bb|----------5-----|----------5-----|
F|7-7-5-7-----5-5-|7-7-5-7-----5-5-|
C|----------------|----------------|

Repeat verse riff, “and sing”, and chorus riff.

Breakdown:

Tabs:
Eb|----------------|----------------|
Bb|----------------|----------------|
F|7~~~~~~~~~~~~~~~|----------------|
C|----------------|8~~~~~~~~~~~~~~~|

End on chorus riff: “Space Lord, motherfmother!”
I almost forgot:
If you don't wait to start playing, at the beginning, you can play:

Tabs:
Eb|----------------|----------------|
Bb|----------------|----------------|
F|----------------|----------------|
C|12\\\0----------|12\\\0----------|

Post a comment